PrimaNota.ru - самый крупный в мире бесплатный архив песенных текстов, аккордов, табулатур и нот


Stereophonics - Bright Red Star - текст песни, таба, видео

Регистрация Запомнить меня
Войти через:  Facebook Google Twitter Vk Yandex Mail.ru

Stereophonics - Bright Red Star - текст песни, таба, видео

Печатать
Просмотров: 150
***************************
Band - Stereophonics    
Song - Bright Red Star  
Album - Pull the Pin    
                         
Guitar 1 = Clean        
Guitar 1 = Clean   

~ = Let the note ring     
***************************

==Intro==

Guitar 1
e|-----------------------------------------------------|
B|-----3--3--3--3--3--3--3--3--3--3--3--3--3--3--3--3--|
G|-----------------------------------------------------|
D|---5--5--5--5--5--5--5--5--4--4--4--4--4--4--4--4----|
A|-----------------------------------------------------|
E|-----------------------------------------------------|

Guitar 1
e|----------------------------------------------------|
B|-----3--3--3--3--3--3--3--3--3--3--3--3--3--3--3--3--|
G|-----------------------------------------------------|
D|---5--5--5--5--5--5--5--5--4--4--4--4--4--4--4--4----|
A|-----------------------------------------------------|
E|-----------------------------------------------------|

==Verse 1==

Guitar 1
e|-----------------------------------------------------|
B|-----3--3--3--3--3--3--3--3--3--3--3--3--3--3--3--3--|
G|-----------------------------------------------------|
D|---5--5--5--5--5--5--5--5--4--4--4--4--4--4--4--4----|
A|-----------------------------------------------------|
E|-----------------------------------------------------|

Guitar 1
e|-----------------------------------------------------|
B|-----3--3--3--3--3--3--3--3--3--3--3--3--3--3--3--3--|
G|-----------------------------------------------------|
D|---5--5--5--5--5--5--5--5--4--4--4--4--4--4--4--4----|
A|-----------------------------------------------------|
E|-----------------------------------------------------|

Guitar 1
e|-----------------------------------------------------|
B|-----3--3--3--3--3--3--3-----------------------------|
G|--------------------------5--5--5--5--5--5--5--5--5--|
D|---3--3--3--3--3--3--3--3--2--2--2--2--2--2--2--2----|
A|-----------------------------------------------------|
E|-----------------------------------------------------|

==Chorus==

Guitar 1
e|-----------------------------------------------------|
B|-----3--3--3--3--3--3--3--3--3--3--3-----------------|
G|--------------------------------------5--5--5--5-----|
D|---5--5--5--5--4--4--4--4--3--3--3--3--2--2--2--2----|
A|-----------------------------------------------------|
E|-----------------------------------------------------|

Guitar 1
e|-----------------------------------------------------|
B|-----3--3--3--3--3--3--3--3--3--3--3-----------------|
G|--------------------------------------5--5--5--5-----|
D|---5--5--5--5--4--4--4--4--3--3--3--3--2--2--2--2----|
A|-----------------------------------------------------|
E|-----------------------------------------------------|

==Verse 2==

Guitar 1
e|-----------------------------------------------------|
B|-----3--3--3--3--3--3--3--3--3--3--3--3--3--3--3--3--|
G|-----------------------------------------------------|
D|---5--5--5--5--5--5--5--5--4--4--4--4--4--4--4--4----|
A|-----------------------------------------------------|
E|-----------------------------------------------------|

Guitar 1
e|-----------------------------------------------------|
B|-----3--3--3--3--3--3--3--3--3--3--3--3--3--3--3--3--|
G|-----------------------------------------------------|
D|---5--5--5--5--5--5--5--5--4--4--4--4--4--4--4--4----|
A|-----------------------------------------------------|
E|-----------------------------------------------------|

Guitar 1
e|-----------------------------------------------------|
B|-----3--3--3--3--3--3--3-----------------------------|
G|--------------------------5--5--5--5--5--5--5--5--5--|
D|---3--3--3--3--3--3--3--3--2--2--2--2--2--2--2--2----|
A|-----------------------------------------------------|
E|-----------------------------------------------------|

==Chorus==

Guitar 1
e|-----------------------------------------------------|
B|-----3--3--3--3--3--3--3--3--3--3--3-----------------|
G|--------------------------------------5--5--5--5-----|
D|---5--5--5--5--4--4--4--4--3--3--3--3--2--2--2--2----|
A|-----------------------------------------------------|
E|-----------------------------------------------------|

Guitar 1
e|-----------------------------------------------------|
B|-----3--3--3--3--3--3--3--3--3--3--3-----------------|
G|--------------------------------------5--5--5--5-----|
D|---5--5--5--5--4--4--4--4--3--3--3--3--2--2--2--2----|
A|-----------------------------------------------------|
E|-----------------------------------------------------|

==Verse 3==

Guitar 1
e|-----------------------------------------------------|
B|-----3--3--3--3--3--3--3--3--3--3--3--3--3--3--3--3--|
G|-----------------------------------------------------|
D|---5--5--5--5--5--5--5--5--4--4--4--4--4--4--4--4----|
A|-----------------------------------------------------|
E|-----------------------------------------------------|

Guitar 1
e|-----------------------------------------------------|
B|-----3--3--3--3--3--3--3--3--3--3--3--3--3--3--3--3--|
G|-----------------------------------------------------|
D|---5--5--5--5--5--5--5--5--4--4--4--4--4--4--4--4----|
A|-----------------------------------------------------|
E|-----------------------------------------------------|

Guitar 1
e|-----------------------------------------------------|
B|-----3--3--3--3--3--3--3-----------------------------|
G|--------------------------5--5--5--5--5--5--5--5--5--|
D|---3--3--3--3--3--3--3--3--2--2--2--2--2--2--2--2----|
A|-----------------------------------------------------|
E|-----------------------------------------------------|

==Chorus==

Guitar 1
e|-----------------------------------------------------|
B|-----3--3--3--3--3--3--3--3--3--3--3-----------------|
G|--------------------------------------5--5--5--5-----|
D|---5--5--5--5--4--4--4--4--3--3--3--3--2--2--2--2----|
A|-----------------------------------------------------|
E|-----------------------------------------------------|

Guitar 1
e|-----------------------------------------------------|
B|-----3--3--3--3--3--3--3--3--3--3--3-----------------|
G|--------------------------------------5--5--5--5-----|
D|---5--5--5--5--4--4--4--4--3--3--3--3--2--2--2--2----|
A|-----------------------------------------------------|
E|-----------------------------------------------------|

==Verse 4 (Quiet)==

Guitar 1
e|-----------------------------------------------------|
B|-----3--3--3--3--3--3--3--3--3--3--3--3--3--3--3--3--|
G|-----------------------------------------------------|
D|---5--5--5--5--5--5--5--5--4--4--4--4--4--4--4--4----|
A|-----------------------------------------------------|
E|-----------------------------------------------------|

Guitar 1
e|-----------------------------------------------------|
B|-----3--3--3--3--3--3--3--3--3--3--3--3--3--3--3--3--|
G|-----------------------------------------------------|
D|---5--5--5--5--5--5--5--5--4--4--4--4--4--4--4--4----|
A|-----------------------------------------------------|
E|-----------------------------------------------------|

Guitar 1
e|-----------------------------------------------------|
B|-----3--3--3--3--3--3--3-----------------------------|
G|--------------------------5--5--5--5--5--5--5--5--5--|
D|---3--3--3--3--3--3--3--3--2--2--2--2--2--2--2--2----|
A|-----------------------------------------------------|
E|-----------------------------------------------------|

==Chorus (Normal Volume)==

Guitar 1
e|-----------------------------------------------------|   \
B|-----3--3--3--3--3--3--3--3--3--3--3-----------------|    \
G|--------------------------------------5--5--5--5-----|     \ 
D|---5--5--5--5--4--4--4--4--3--3--3--3--2--2--2--2----|      \
A|-----------------------------------------------------|       \
E|-----------------------------------------------------|        \
                                                                 \
Guitar 2                                                          Together
e|-----------------------------------------------------|         /
B|-----3--------3-----------3--------------------------|        /
G|--------------------------------------5--------------|       /
D|---------5-----------4-----------3-----------2-------|      /
A|-----------------------------------------------------|     /
E|-----------------------------------------------------|    /

Guitar 1
e|-----------------------------------------------------|   \
B|-----3--3--3--3--3--3--3--3--3--3--3-----------------|    \
G|--------------------------------------5--5--5--5-----|     \
D|---5--5--5--5--4--4--4--4--3--3--3--3--2--2--2--2----|      \
A|-----------------------------------------------------|       \
E|-----------------------------------------------------|        \
                                                                 \
Guitar 2                                                           Together
e|-----------------------------------------------------|         /
B|-----3--------3-----------3--------------------------|        /
G|--------------------------------------5--------------|       /
D|---------5-----------4-----------3-----------2-------|      /
A|-----------------------------------------------------|     /
E|-----------------------------------------------------|    /

Guitar 1
e|-----------------------------------------------------|    \
B|-----3--3--3--3--3--3--3--3--3--3--3-----------------|     \
G|--------------------------------------5--5--5--5-----|      \
D|---5--5--5--5--4--4--4--4--3--3--3--3--2--2--2--2----|       \
A|-----------------------------------------------------|        \
E|-----------------------------------------------------|         \
                                                                  \
Guitar 2                                                            Together
e|-----------------------------------------------------|          /
B|-----3--------3-----------3--------------------------|         /
G|--------------------------------------5--------------|        /
D|---------5-----------4-----------3-----------2-------|       /
A|-----------------------------------------------------|      /
E|-----------------------------------------------------|     /

Guitar 1                                                     
e|-----------------------------------------------------|     \
B|-----3--3--3--3--3--3--3--3--3--3--3-----------------|      \ 
G|--------------------------------------5--5--5--5-----|       \
D|---5--5--5--5--4--4--4--4--3--3--3--3--2--2--2--2----|        \
A|-----------------------------------------------------|         \
E|-----------------------------------------------------|          \
                                                                   \
Guitar 2                                                             Together
e|-----------------------------------------------------|           /
B|-----3--------3-----------3--------------------------|          /
G|--------------------------------------5--------------|         /
D|---------5-----------4-----------3-----------2-------|        /
A|-----------------------------------------------------|       / 
E|-----------------------------------------------------|      /

==Outro==

Guitar 1
e|-----------------------------------------------------|     \
B|-----3--3--3--3--3--3--3--3--3--3--3--3--3--3--3--3--|      \
G|-----------------------------------------------------|       \
D|---5--5--5--5--5--5--5--5--4--4--4--4--4--4--4--4----|        \
A|-----------------------------------------------------|         \
E|-----------------------------------------------------|          \
                                                                   \
Guitar 2                                                             Together
e|-----------------------------------------------------|           /
B|-----3---------5~~~~~~~~~----3---------5~~~~~~~~~----|          /
G|-----------------------------------------------------|         /
D|-----------------------------------------------------|        /
A|-----------------------------------------------------|       /
E|-----------------------------------------------------|      /

Guitar 1
e|-----------------------------------------------------|      \
B|-----3--3--3--3--3--3--3--3--3--3--3--3--3--3--3--3--|       \
G|-----------------------------------------------------|        \ 
D|---5--5--5--5--5--5--5--5--4--4--4--4--4--4--4--4----|         \
A|-----------------------------------------------------|          \ 
E|-----------------------------------------------------|           \
                                                                    \
Guitar 2                                                             Together
e|-----------------------------------------------------|            /       
B|-----3---------5~~~~~~~~~----3---------1~~~~~~~~~----|           /
G|-----------------------------------------------------|          /
D|-----------------------------------------------------|         /
A|-----------------------------------------------------|        /
E|-----------------------------------------------------|       /

Guitar 1                                
e|-----------------------------------------------------|       \
B|-----3--3--3--3--3--3--3-----------------------------|        \ 
G|--------------------------5--5--5--5--5--5--5--5--5--|         \
D|---3--3--3--3--3--3--3--3--2--2--2--2--2--2--2--2----|          \
A|-----------------------------------------------------|           \
E|-----------------------------------------------------|            \
                                        ^Slow Down                   \
Guitar 2                                                             Together
e|-----------------------------------------------------|             /
B|-----5--1--0-----------------------------------3--5--|            /
G|------------------0-------2--0--------0--2--0--------|           /
D|-----------------------------------------------------|          /
A|-----------------------------------------------------|         /
E|-----------------------------------------------------|        /
                                        ^Slow Down             /
Добавлено: 15.07.2013
Другие материалы по этой песне:
  • Аккорды и текст

Страница создана 15.07.2013
http://primanota.ru/stereophonics/bright-red-star-chords.htm
Привет, Гость.
Предлагаем пройти революционный курс по гитаре.
Подарок от PrimaNota.Ru, забирай!