PrimaNota.ru - самый крупный в мире бесплатный архив песенных текстов, аккордов, табулатур и нот


Stereophonics - Bank Holiday Monday - текст песни, таба, бас-таба, видео

Регистрация Запомнить меня
Войти через:  Facebook Google Twitter Vk Yandex Mail.ru

Stereophonics - Bank Holiday Monday - текст песни, таба, бас-таба, видео

Печатать
Просмотров: 114
Bank Holiday Monday-Stereophonics

New Song from their forthcoming album 'Pull The Pin'. Saw It Live at Radio 1s big weekend.

Intro 

Guitar 1
   
e----------------------------------|
B----------------------------------|
G-7-7-7-7-7-7-7-7-7-7-7-7-7-7-7-7--|
D-7-7-7-7-7-7-7-7-7-7-7-7-7-7-7-7--|
A-5-5-5-5-5-5-5-5-5-5-5-5-5-5-5-5--|
E----------------------------------| As Many Times As Neccesary!

Guitar 2

e--------------------------------|
B--------------------------------|
G-2-2-2--5-5-5--7-7-7-7-7-7-7-7--|
D-0-0-0--0-0-0--0-0-0-0-0-0-0-0--| 
A--------------------------------|
E--------------------------------| x4

Verse

Guitar 1

e---------------------------------------------------------|
B---------------------------------------------------------|
G-7-7-7-7-7/10-10-10-10-10-10/7-7-7-7-7-7/10-10-10-10-10--|
D-7-7-7-7-7/10-10-10-10-10-10/7-7-7-7-7-7/10-10-10-10-10--|
A-5-5-5-5-5/8--8--8--8--8--8-/5-5-5-5-5-5/8--8--8--8--8---| 
E---------------------------------------------------------| x1

After The Above 2nd Guitar Guitar Enters and plays the above twice.

e-------------------------------------------------------------------|
B-------------------------------------------------------------------|
G-7-7-7-7-7/10-10-10-10-10/7-7-7-7-7/10-10-10-10-10/12-12-12-12-12--|
D-7-7-7-7-7/10-10-10-10-10/7-7-7-7-7/10-10-10-10-10/12-12-12-12-12--|
A-5-5-5-5-5/8--8--8--8--8-/5-5-5-5-5/8--8--8--8--8-/10-10-10-10-10--|
E-------------------------------------------------------------------|

Chorus

e-------------------------------------------------------------------|
B-------------------------------------------------------------------|
G-7-7-7-7-7-7-7-7--5-5-5-5-5-5-5-5--3-3-3-3-3-3-3-3--5-5-5-5-5-5-5--|
D-7-7-7-7-7-7-7-7--5-5-5-5-5-5-5-5--3-3-3-3-3-3-3-3--5-5-5-5-5-5-5--|
A-5-5-5-5-5-5-5-5--3-3-3-3-3-3-3-3--1-1-1-1-1-1-1-1--3-3-3-3-3-3-3--|
E-------------------------------------------------------------------| x2

Post-Chorus

e------------------------------------------------------x--|
B------------------------------------------------------x--|
G-7-7-7-7-7-7-7-7-7-7-7-7-7-7--5-5--7-7-7-7-7-7-7-7-7--x--|
D-0-0-0-0-0-0-0-0-0-0-0-0-0-0--0-0--0-0-0-0-0-0-0-0-0--x--|
A------------------------------------------------------x--|
E------------------------------------------------------x--|

Verse 2

Guitar 1

e---------------------------------------------------------|
B---------------------------------------------------------|
G-7-7-7-7-7/10-10-10-10-10-10/7-7-7-7-7-7/10-10-10-10-10--|
D-7-7-7-7-7/10-10-10-10-10-10/7-7-7-7-7-7/10-10-10-10-10--|
A-5-5-5-5-5/8--8--8--8--8--8-/5-5-5-5-5-5/8--8--8--8--8---| 
E---------------------------------------------------------| x1

e-------------------------------------------------------------------|
B-------------------------------------------------------------------|
G-7-7-7-7-7/10-10-10-10-10/7-7-7-7-7/10-10-10-10-10/12-12-12-12-12--|
D-7-7-7-7-7/10-10-10-10-10/7-7-7-7-7/10-10-10-10-10/12-12-12-12-12--|
A-5-5-5-5-5/8--8--8--8--8-/5-5-5-5-5/8--8--8--8--8-/10-10-10-10-10--|
E-------------------------------------------------------------------| x1

After 2 times Guitar 2 enters and plays:

e-----------------------------------|
B---------------------13------------| As Many Times
G-10-12-10--10-12-12b----12rp10-----| As Neccesary.
D-------------------------------12--|
A-----------------------------------|
E-----------------------------------|

Chorus

Guitar 1

e-------------------------------------------------------------------|
B-------------------------------------------------------------------|
G-7-7-7-7-7-7-7-7--5-5-5-5-5-5-5-5--3-3-3-3-3-3-3-3--5-5-5-5-5-5-5--|
D-7-7-7-7-7-7-7-7--5-5-5-5-5-5-5-5--3-3-3-3-3-3-3-3--5-5-5-5-5-5-5--|
A-5-5-5-5-5-5-5-5--3-3-3-3-3-3-3-3--1-1-1-1-1-1-1-1--3-3-3-3-3-3-3--|
E-------------------------------------------------------------------| x2

Guitar 2-With Whammy Bar 

e-----------------------|
B-----------------------| Throughout Chorus
G-----------------------| 
D-12/\/\/\/\/\/\/\/\/\--|
A-----------------------|
E-----------------------|

Post-Chorus

e------------------------------------------------------x--|
B------------------------------------------------------x--|
G-7-7-7-7-7-7-7-7-7-7-7-7-7-7--5-5--7-7-7-7-7-7-7-7-7--x--|
D-0-0-0-0-0-0-0-0-0-0-0-0-0-0--0-0--0-0-0-0-0-0-0-0-0--x--|
A------------------------------------------------------x--|
E------------------------------------------------------x--|

Bridge

Gtr 1 + 2

e--------------------------------------------------------------|
B--------------------------------------------------------------|
G-7-7-7-7-7-7-7--9-9--7-7--6-6-6-6-6-6-6--7-7--6-6--5-5-5-5-5--|
D-0-0-0-0-0-0-0--0-0--0-0--0-0-0-0-0-0-0--0-0--0-0--0-0-0-0-0--|
A--------------------------------------------------------------|
E--------------------------------------------------------------|

e----------------------------|
B----------------------------|
G-7-7--5-5--4-4-4-4-4-4-4-4--|
D-0-0--0-0--0-0-0-0-0-0-0-0--|
A----------------------------|
E----------------------------| x1

Then
'I Wanna Stick Him Real Hard With The Kitchen Knife.....' 
e-----------------------------------------------------------------------|
B-----------------------------------------------------------------------|
G-7-7-7-7-7-7-7-7-7--6-6-6-6-6-6-6-6-6--5-5-5-5-5-5-5--4-4-4-4-4-4-4-4--|
D-x-x-x-x-x-x-x-x-x--x-x-x-x-x-x-x-x-x--x-x-x-x-x-x-x--x-x-x-x-x-x-x-x--|
A-5-5-5-5-5-5-5-5-5--4-4-4-4-4-4-4-4-4--3-3-3-3-3-3-3--2-2-2-2-2-2-2-2--|
E-----------------------------------------------------------------------| x1

Chorus

e-------------------------------------------------------------------|
B-------------------------------------------------------------------|
G-7-7-7-7-7-7-7-7--5-5-5-5-5-5-5-5--3-3-3-3-3-3-3-3--5-5-5-5-5-5-5--|
D-7-7-7-7-7-7-7-7--5-5-5-5-5-5-5-5--3-3-3-3-3-3-3-3--5-5-5-5-5-5-5--|
A-5-5-5-5-5-5-5-5--3-3-3-3-3-3-3-3--1-1-1-1-1-1-1-1--3-3-3-3-3-3-3--|
E-------------------------------------------------------------------| x2

Outro

Gtr 1

e-------------------------------------------------------|
B-------------------------------------------------------|
G-------------------------------------------------------|
D-7-7-7-7-7-7-7-7-7-7-7--5-5--7-7-7-7-7-7-7-7-7-7--5-5--|
A-5-5-5-5-5-5-5-5-5-5-5--3-3--5-5-5-5-5-5-5-5-5-5--3-3--|
E-------------------------------------------------------| x4 

Gtr 2

e---------------------------------------------------------------------|
B---------------------------------------------------------------------|
G-2-2-2-2-2-2-2-2-2-2-2-2-2-2--5-2-5-2--2-2-2-2-2-2-2-2-2--5-2-5-2-7--|
D------------------------------------------------------------------0--|
A---------------------------------------------------------------------|
E---------------------------------------------------------------------|

Update: I was asked for the Chords:

Intro

D

Verse

D, F, D, F, D, F, D, F, G

Chorus

D, C, Bb, C.

Post-Chorus

D, C. 

Order

Intro
Verse
Chorus
Post-Chorus
Verse
Chorus
Post-Chorus
Bridge
Chorus
Outro
Добавлено: 04.06.2013
Другие материалы по этой песне:
  • Аккорды и текст

Страница создана 25.03.2012
http://primanota.ru/stereophonics/bank-holiday-monday-chords.htm
Привет, Гость.
Предлагаем пройти революционный курс по гитаре.
Подарок от PrimaNota.Ru, забирай!