PrimaNota.ru - самый крупный в мире бесплатный архив песенных текстов, аккордов, табулатур и нот


Stereolab - Im Going Out Of My Way - аккорды и текст, видео

Регистрация Запомнить меня
Войти через:  Facebook Google Twitter Vk Yandex Mail.ru

Stereolab - Im Going Out Of My Way - аккорды и текст, видео

Печатать
Просмотров: 141
Im Going Out Of My Way
Stereolab
Author/Artist: Stereolab
Title: I'm Going Out of my Way
Album: Transient Random-Noise Bursts With Announcements

   Rhythm

   C      G

----------3-3--3-3-3--3-3-3-3-------------------------------------------
---5-5-5--3-3--3-3-3--3-3-3-3-------------------------------------------
---5-5-5--4-4--4-4-4--4-4-4-4-------------------------------------------
---5-5-5--5-5--5-5-5--5-5-5-5-------------------------------------------
---3-3-3--5-5--5-5-5--5-5-5-5-------------------------------------------
----------3-3--3-3-3--3-3-3-3-------------------------------------------

Riff that pops up occasionally

--------------------------------------------------------------
--------------------------------------------------------------
-----4-0-4-0--------------------------------------------------
---5----------------------------------------------------------
-------------5------------------------------------------------
--------------------------------------------------------------

Betcha didn't know there was any guitar under all that organ did ya?
Not every strum is indicated in the rhythm, listen to it to get the feel.



Questions, Comments to: scott_houle@hotmail.com
     
Добавлено: 04.10.2013
Другие материалы по этой песне:
  • Аккорды и текст

Страница создана 04.10.2013
http://primanota.ru/stereolab/im-going-out-of-my-way-chords.htm
Привет, Гость.
Предлагаем пройти революционный курс по гитаре.
Подарок от PrimaNota.Ru, забирай!