PrimaNota.ru - самый крупный в мире бесплатный архив песенных текстов, аккордов, табулатур и нот


Stereodoping - Lenape Heights - таба, видео

Регистрация Запомнить меня
Войти через:  Facebook Google Twitter Vk Yandex Mail.ru

Stereodoping - Lenape Heights - таба, видео

Печатать
Просмотров: 117
Уроки эстрадного вокала в Санкт-Петербурге
-------------------------------------------------------------------------------
                             Lenape Heights - STEREODOPING
-------------------------------------------------------------------------------
Tabbed by: Lazer_sfera
Email: lazer_alternosfera@yahoo.com


http://www.stereodoping.com/
http://www.myspace.com/stereodopingband


Tuning: Band plays in C#-G#-c#-F#-a#-d# tune
Enjoy




GUITAR INTRO:

d#|-----------------------------------------------|----------------------------------------------|
a#|-----------------------------------------------|----------------------------------------------|
F#|--12---12------10---10--------------------10---|--12---12------10---10----------------(~10)---|
C#|-----0----0--0----0----0--0--10--12--0--0----0-|-----0----0--0----0----0--0--10--12-----------|
G#|-----------------------------------------------|----------------------------------------------|
C#|-----------------------------------------------|----------------------------------------------|



BAND INTRO:

d#|----------------------------------------------------------------|
a#|----------------------------------------------------------------|
F#|--12---12\10—10/12---12--12-------------------------------------|
C#|-------------------------------12-12—-10/12--12-12--------------| (X 2)
G#|--10---10\8---8/10---10--10----12-12—-10/12--12-12—-------------|
C#|-------------------------------12-12—-10/12--12-12--------------|

d#|---------------------------------------------------------------------------|
a#|---------------------------------------------------------------------------|
F#|--7-7-7-7-7-7-7-7--10-10-10-10--12-12-12-12--------------------------------|
C#|--5-5-5-5-5-5-5-5--8—-8—-8-—8---10-10-10-10--------------------------------|
G#|--5-5-5-5-5-5-5-5--8—-8--8--8---10-10-10-10--------------------------------|
C#|--5-5-5-5-5-5-5-5--8--8--8--8---10-10-10-10--------------------------------|



VERSE 1:

d#|------------------------------------------|-----|--------------------------|
a#|------------------------------------------|-----|--------------------------|
F#|------------------------------------------|-----|--------------------------|
C#|--0-0-10-12-0-0-10-12-0-0-10-12-0-0-12-12-|(X 2)|-10-10--------------------|
G#|------------------------------------------|-----|--------------------------|
C#|------------------------------------------|-----|--------------------------|



VERSE 2:

d#|--------------------------------------|--------|---------------------------|
a#|--------------------------------------|--------|---------------------------|
F#|--12--12---10--10----------------10---|--------|------------(~10)----------|
C#|-----0--0-0---0--0-0--10-12--0-0----0-|-( X 3)-|--0-0-10-12----------------|
G#|--------------------------------------|--------|---------------------------|
C#|--------------------------------------|--------|---------------------------|



PRE CHORUS 1:

d#|--------------------------------------10\-|
a#|--10------10-------13------10---------13\-|
F#|----12-12----12-12----12-12--12-12----12\-|
C#|------------------------------------------|
G#|------------------------------------------|
C#|------------------------------------------|



CHORUS:

d#|-----------------------------|---------------------------------------------|
a#|-------------6-6-6-----------|-------------6-6-6--9-9-9-9------------------|
F#|--7-7-7-7-7---------5-5-5-5--|--7-7-7-7-7----------------------------------|
C#|--7-7-7-7-7--7-7-7--7-7-7-7--|--7-7-7-7-7--7-7-7--7-7-7-7------------------|
G#|--5-5-5-5-5--0-0-0--0-0-0-0--|--5-5-5-5-5--0-0-0--0-0-0-0------------------|
C#|--0-0-0-0-0------------------|--0-0-0-0-0----------------------------------|

d#|----------------------------------------|----------------------------------|
a#|----------------------6-6-6-6--9-9-9-9--|----------------------------------|
F#|--7-7-7-7---5-5-5-5---5-5-5-5--5-5-5-5--|--10-10-10-10---5-5--12-12--------|
C#|--7-7-7-7---7-7-7-7---7-7-7-7--7-7-7-7--|--8--8--8--8----3-3--10-10--------|
G#|--5-5-5-5---0-0-0-0---0-0-0-0--0-0-0-0--|--8--8--8--8----3-3--10-10--------|
C#|--0-0-0-0-------------------------------|--8--8--8--8----3-3--10-10--------|



POST CHORUS:

d#|-----------------------------------------------------|----|----------------|
a#|-----------------------------------------------------|----|----------------|
F#|-----------------------------------------------------|----|-------10-10----|
C#|-0-0--10-12----0-0--10-12---0-0--10-12---0-0--12-12--|(X2)|-0-0------------|
G#|-0-0--10-12—---0-0--10-12---0-0--10-12---0-0--12-12--|----|-0-0------------|
C#|-0-0--10-12----0-0--10-12---0-0--10-12---0-0--12-12--|----|-0-0------------|

Next is VERSE 2 



PRE CHORUS 2:

d#|-----------------------------|---------------------------------------------|
a#|-----------------------------|---------------------------------------------|
F#|--5/7-7-7—-5/7-7-7—-5/7-7-7--|--7/9-9-9—-7/9-9-9—-7/9-9-9------------------|
C#|--0-0-0-0--0-0-0-0--0-0-0-0--|--0-0-0-0--0-0-0-0--0-0-0-0------------------|
G#|--0-0-0-0--0-0-0-0--0-0-0-0--|--0-0-0-0--0-0-0-0--0-0-0-0------------------|
C#|--0-0-0-0--0-0-0-0--0-0-0-0--|--0-0-0-0--0-0-0-0--0-0-0-0------------------|

d#|-----------------------------|---------------------------------------------|
a#|-----------------------------|---------------------------------------------|
F#|-9/10-10-10—-9/10-10-10---10-|----( + PRE CHORUS 1)------------------------|
C#|-0-0--0--0---0-0--0--0----0--|---------------------------------------------|
G#|-0-0--0--0---0-0--0--0----0--|---------------------------------------------|
C#|-0-0--0--0---0-0--0--0----0--|---------------------------------------------|

Next is CHORUS



BRIDGE 1

d#|--|-------------------------------------------------------------------------|
a#|--|-------------------------------------------------------------------------|
F#|--|--7-----7------7/9----5-----5-----5/7---3-----3------3/5--2----2----(~2)-|
C#|-0|----0-----0-------------0-----0-----------0-----0-----------0---0--------|
G#|-0|-------------------------------------------------------------------------|
C#|-0|------0-----0-------------0-----0-----------0-----0-----------0---0------|

d#|------------------------------------------------------------------------|
a#|------------------------------------------------------------------------|
F#|-7-----7-----(~7)----5-----5----(~5)---3-----3-----(~3)--2----2----(~2)-| (X 2)
C#|---0-----0-------------0-----0-----------0-----0-----------0---0--------|
G#|------------------------------------------------------------------------|
C#|-----0-----0-------------0-----0-----------0-----0-----------0---0------|

d#|---------------------------------------------------------------------------|
a#|---------------------------------------------------------------------------|
F#|-7-----7-----(~7)--5-----5-----(~5)--3-----3-----(~3)---2222-2222----------|
C#|---0-0---0-0---------0-0---0-0---------0-0---0-0--------2222-2222----------|
G#|-5-0-0-5-0-0-(~5)--3-0-0-3-0-0-(~3)--1-0-0-1-0-0-(~1)---0000-0000----------|
C#|---0-0---0-0---------0-0---0-0---------0-0---0-0---------------------------|



BRIDGE 2 (POWER Chords):

d#|---------------------------------------------------------------------------|
a#|---------------------------------------------------------------------------|
F#|------------------------------------------------------5-5--12-12-----------|
C#|--00000-333-333--00000-33(~3/)---00000-333-333--8888—-3-3--10-10-----------|
G#|--00000-333-333--00000-33(~3/)---00000-333-333--8888—-3-3--10-10-----------|
C#|--00000-333-333--00000-33(~3/)---00000-333-333--8888—-3-3--10-10-----------|


Next is BAND INTRO

Then 2 times VERSE 1 

CHORUS


And final magic chords:

d#|-------|
a#|-------|
F#|-------|
C#|-0-0---|
G#|-0-0---|
C#|-0-0---|




| /  slide up
| \  slide down
| ~  vibrato



http://www.stereodoping.com/
http://www.myspace.com/stereodopingband


===============================================================================

Добавлено: 29.02.2012
Другие материалы по этой песне:
  • Аккорды и текст

Страница создана 29.02.2012
http://primanota.ru/stereodoping/lenape-heights-chords.htm
Привет, Гость.
Предлагаем пройти революционный курс по гитаре.
Подарок от PrimaNota.Ru, забирай!