PrimaNota.ru - самый крупный в мире бесплатный архив песенных текстов, аккордов, табулатур и нот


Stereo - Still Here - таба, видео

Регистрация Запомнить меня
Войти через:  Facebook Google Twitter Vk Yandex Mail.ru

Stereo - Still Here - таба, видео

Печатать
Просмотров: 141
-Artist: STEREO
-Song: Still Here
-Album: Monogamy
-Tuning: D-A-D-G-A-E

-Chords:

Dsus2:  0-5-7-7-0-0---|
Fsus2:    3-3-5-5-0-0-|
Gsus2:    5-5-7-7-0-0-|
Eadd4:  2-2-2-1-0-0---|
Bbsus2: 8-8-10-10-0-0-|
Bm:       9-x-0-7-0-0-|
D/F#:     4-0-4-2-0-0-|
A:      7-7-7-x-x-x---|

-Intro:
   Dsus2
E---------------0---------------------------0----------------------|
A-------0-------0------0-------------0------0------0---------------|
G------------7------7------7--------------7-----7------7-----------|
D-----7---7--------------7---------7---7-------------7-------------|
A------------------------------------------------------------------|
D--0----------------------------0----------------------------------|

-Verse:
(2x)
E---------------0---------------------------0----------------------|
A-------0-------0------0-------------0------0------0---------------|
G------------7------7------7--------------7-----7------7-----------|
D-----7---7--------------7---------7---7-------------7-------------|
A------------------------------------------------------------------|
D--0----------------------------0----------------------------------|

   F                                         G
E---------------0--------------------------------------------------|
A-------0-------0------0-------------0------------0----------------|
G------------5------5------5--------------5------------7-----------|
D-----5---5--------------5---------5---5--------7----7-------------|
A------------------------------------------------------------------|
D--3----------------------------3------------5---------------------|

   Dsus2
E---------------0---------------------------0----------------------|
A-------0-------0------0-------------0------0------0---------------|
G------------7------7------7--------------7-----7------7-----------|
D-----7---7--------------7---------7---7-------------7-------------|
A------------------------------------------------------------------|
D--0----------------------------0----------------------------------|

-Prechorus:
   Eadd4                          G
E-------------------0---------------------------0------------|
A-----------0-------0------0-------------0------0------0-----|
G----------------1------1------1--------------7-----7------7-|
D---------2---2--------------2---------7---7-------------7---|
A------------------------------------------------------------|
D-------2----------------------------5-----------------------|
And the shadows I see, look     more and      more like..


E---------------0---------------------------0----------------------|
A-------0-------0------0-------------0------0------0---------------|
G------------10-----10-----10-------------10----10-----10----------|
D-----10--10-------------10--------10--10------------10------------|
A------------------------------------------------------------------|
D--8----------------------------0----------------------------------|
  you           did............

-Chorus (acoustic)
(2x)Dsus2                               Gsus2
E---------------0---------------------------0----------------------|
A-------0-------0------0-------------0------0------0---------------|
G------------7------7------7--------------7-----7------7-----------|
D-----7---7--------------7---------7---7-------------7-------------|
A------------------------------------------------------------------|
D--0----------------------------5----------------------------------|
  Why do  you   have to be       so far a    way         ‘cause

    Bm                            D/F#           A7
E--------------0---------------------0----0--------0---0------------|
A-------0------0-----0--------------0-------0-----0------0----------|
G------------7----7------7---------2----2--------0---0--------------|
D-----0---0------------0----------4-------------2-------------------|
A--------------------------------0-------------0--------------------|
D--9----------------------------4-----------------------------------|
   I'm         still             here

-Repeat Verse

-Prechorus 2:

   Eadd4                          Gsus2
E-------------------0---------------------------0-------------------|
A-----------0-------0------0-------------0------0------0------------|
G----------------1------1------1--------------7-----7------7--------|
D---------2---2--------------2---------7---7-------------7----------|
A-------------------------------------------------------------------|
D-------2----------------------------5------------------------------|
And the shadows I see, look     more and      more like..

(Distorted guitar, palm-muted)
   Bbsus2                                Csus2
E-------------------------------------------------------------------|
A-------------------------------------------------------------------|
G-------------------------------------------------------------------|
D--10--10--10--10--10--10--10--10--10--10s12---12---12---12---------|
A--8---8---8---8---8---8---8---8---8---8-s10---10---10---10---------|
D--8---8---8---8---8---8---8---8---8---8-s10---10---10---10---------|
  you           did............

- Chorus (electric distorted)
   D                    Gsus2              Bmsus2 Bm   D/F#  A
E-------------------------------------------------------------------|
A--3----------------------------------------------------------------|
G--2--------------------7-------------------------------------------|
D--0--------------------7--------------------11---12---------7--7---|
A--0--------------------5--------------------9----9----7--5--7--9---|
D--0--------------------5--------------------9----9----4--4--7--7---|
  Why do you have to be so far away, ‘cause I'm still here
  Why would be there if I need you today, ‘cause I'm still here


-Bridge:
   Gsus2                               D/F#
E-------------------------------------------------------------------|
A-------------------------------------------------------------------|
G-------------------------------------------------------------------|
D--7--7--7--7--x--x--7--7--7--7--x--x--7--7--7--7--x--x--7--7--7--7-|
A--5--5--5--5--x--x--5--5--5--5--x--x--5--5--5--5--x--x--5--5--5--5-|
D--5--5--5--5--x--x--5--5--5--5--x--x--4--4--4--4--x--x--4--4--4--4-|

         Gsus2                               D/F#              D
E-------------------------------------------------------------------|
A-------------------------------------------------------------------|
G--------------------------------------------------------------2----|
D--x--x--7--7--7--7--x--x--7--7--7--7--x--x--7--7--7--7--x--x--0----|
A--x--x--5--5--5--5--x--x--5--5--5--5--x--x--5--5--5--5--x--x--0----|
D--x--x--5--5--5--5--x--x--5--5--5--5--x--x--4--4--4--4--x--x--0----|

   Gsus2                               Bbsus2
E-------------------------------------------------------------------|
A-------------------------------------------------------------------|
G-------------------------------------------------------------------|
D--7--7--7--7--x--x--7--7--7--7--x--x--10--10--10--10--10--10--10---|
A--5--5--5--5--x--x--5--5--5--5--x--x--8---8---8---8---8---8---8----|
D--5--5--5--5--x--x--5--5--5--5--x--x--8---8---8---8---8---8---8----|

-Softchorus:
   Dsus2              A                   Bm
E-----------0------------------0-------------------0----------------|
A--------0-----0------------0-----0-------------0-----0-------------|
G-----7-----------7------7-----------7-------7-----------7----------|
D-------------------------------------------------------------------|
A-------------------------------------------------------------------|
D--0------------------5-------------------9-------------------------|
 Why do you have to be so far away,‘cause I'm     still.....

E-------------------------------------------------------------------|
A-------------------------------------------------------------------|
G-------------------------------------------------------------------|
D-------------------------------------------------------------------|
A--7--7--7--5-----7--7--7--9----------------------------------------|
D--4--4--4--4-----7--7--7--7----------------------------------------|
        You know that I'm still

- 3x Chorus like before, and now 2nd guitar plays:

E-------------------------------------------------------------------|
A-------------------------------------------------------------------|
G--7--7--9--11--7--7--9--11--7--7--9--11--9--11-9--11---------------|
D-------------------------------------------------------------------|
A--5--5--7--9---5--5--7--9---5--5--7--9---7--9--7--9----------------|
D-------------------------------------------------------------------|

- Outro, repeat 4x:
Dsus2
E-----------0-------------------0-----------------------------------|
A--------0-----0-------------0-----0--------------------------------|
G-----7-----------7-------7-----------7-----------------------------|
D-------------------------------------------------------------------|
A-------------------------------------------------------------------|
D--0---still-here...---0----still-here...---------------------------|
Добавлено: 22.06.2012
Другие материалы по этой песне:
  • Аккорды и текст

Страница создана 22.06.2012
http://primanota.ru/stereo/still-here-chords.htm
Привет, Гость.
Предлагаем пройти революционный курс по гитаре.
Подарок от PrimaNota.Ru, забирай!