PrimaNota.ru - самый крупный в мире бесплатный архив песенных текстов, аккордов, табулатур и нот


Stereo - Last Forever - таба, видео

Регистрация Запомнить меня
Войти через:  Facebook Google Twitter Vk Yandex Mail.ru

Stereo - Last Forever - таба, видео

Печатать
Просмотров: 135
Уроки эстрадного вокала в Санкт-Петербурге
Hi all

I haven't seen any tabs of this song so I decided to tab it myself. 
I think its pretty close, let me know how you think about it and rate it


tabber: paul westerink
mail:   paul11ajax@hotmail.com

have fun

Guitar 1: standard tuning
Guitar 2: standard tuning

*update! 26 June 2009* "added second guitar, the bridge, some lyrics and little 
note changes here and there"
*update! 28 June 2009* "corrected few notes in the bridge thanks to rockett97"

INTRO - GUITAR 1 
|-----------------|-----------------|-----------------|----------------|
|------6----------|------5----------|-----------------|----------------|
|--5-5---5--5-----|--5-5---5--5-----|------7----------|------7---------|
|-----------------|-----------------|--7-7---7--7-----|--7-7---7--7----|
|-----------------|-----------------|-----------------|----------------|
|-----------------|-----------------|-----------------|----------------|x2

GUITAR 2 - jumps in at second time the intro is played
|-------------------------|-------------------------|-------------------------|
|-------------------------|-------------------------|-------------------------|
|-10-10-10-10-10-10-10-10-|-10-10-10-10-10-10-10-10-|-------------------------|
|-10-10-10-10-10-10-10-10-|-10-10-10-10-10-10-10-10-|-12-12-12-12-12-12-12-12-|
|-8--8--8--8--8--8--8--8--|-7--7--7--7--7--7--7--7--|-12-12-12-12-12-12-12-12-|
|-------------------------|-------------------------|-10-10-10-10-10-10-10-10-|

|-------------------------|
|-------------------------|
|-------------------------|
|-12-12-12-12-12-12-12-12-|
|-12-12-12-12-12-12-12-12-|
|-10-10-10-10-10-10-10-10-|

VERSE 1 -GUITAR 1  "in love with you, but I no longer recognice"
|--------------------------|--------------------------|-----------------------------|
|--------------------------|--------------------------|-----------------------------|
|--------------------------|--------------------------|-----------------------------|
|--10-10-10-10-10-10-10-10-|--10-10-10-10-10-10-10-10-|-----------------------------|
|--8--8--8--8--8--8--8--8--|--7--7--7--7--7--7--7--7--|--12-12-12-12-12-12-12-12----|
|--------------------------|--------------------------|--10-10-10-10-10-10-10-10----|
pm .  .  .  .  .  .  .  .     .  .  .  .  .  .  .  .      .  .  .  .  .  .  .  .


|--------------------------|-------------------|--------------------------|-------------------|
|--------------------------|-------------------|--------------------------|-------------------|
|--------------------------|-------------------|--------------------------|-------------------|
|--------------------------|-------------------|--------------------------|-------------------|
|--12-12-12-12-12-12-12-12-|--8-8-8-8-8-8-8-8--|--10-10-10-10-10-10-10-10-|--7-7-7-7-7-7-7-7--|
|--10-10-10-10-10-10-10-10-|--6-6-6-6-6-6-6-6--|--8--8--8--8--8--8--8--8--|--5-5-5-5-5-5-5-5--|
pm .  .  .  .  .  .  .  .     . . . . . . . .     .  .  .  .  .  .  .  .     . . . . . . . .

|-------------------|
|-------------------|
|-------------------|
|-------------------|
|--8-8-8-8-8--------|
|--6-6-6-6-6--------|
pm . . . . . 


CHORUS - BOTH GUITARS  "don't wanna sing this song to make you feel better"
|--------------------------|--------------------------|----------------------------|
|--------------------------|--------------------------|----------------------------|
|--10-10-10-10-10-10-10-10-|--10-10-10-10-10-10-10-10-|----------------------------|
|--10-10-10-10-10-10-10-10-|--10-10-10-10-10-10-10-10-|--12-12-12-12-12-12-12-12---|
|--8--8--8--8--8--8--8--8--|--7--7--7--7--7--7--7--7--|--12-12-12-12-12-12-12-12---|
|--------------------------|--------------------------|--10-10-10-10-10-10-10-10---|

|-------------------|
|-------------------|
|-------------------|
|--8-8-8-8-8-8-8-8--|
|--8-8-8-8-8-8-8-8--|
|--6-6-6-6-6-6-6-6--|x2

VERSE 2BOTH GUITARS  "Oooh all I am is kinda lost right now"
|------------------|------------------|------------------|--------------------------|
|------------------|------------------|------------------|--------------------------|
|------------------|--7-7-7-7-7-7-7-7-|------------------|--------------------------|
|--7-7-7-7-7-7-7-7-|--7-7-7-7-7-7-7-7-|--8-8-8-8-8-8-8-8-|--10-10-10-10-10-10-10-10-|
|--7-7-7-7-7-7-7-7-|--5-5-5-5-5-5-5-5-|--8-8-8-8-8-8-8-8-|--10-10-10-10-10-10-10-10-|
|--5-5-5-5-5-5-5-5-|------------------|--6-6-6-6-6-6-6-6-|--8--8--8--8--8--8--8--8--|

.----------------------------------.
|REPEAT THE INTRO - ONLY 1 TIME    |
|                                  | 
|                                  | 
|                                  | 
|REPEAT VERSE 1                    |
|                                  |
|                                  |
|                                  |
|REPEAT CHORUS                     |
.----------------------------------.


VERSE 3 - GUITAR 1  "Oooh all I am is kinda lost right now"
|------------------|------------------|------------------|---------------------------|
|------------------|------------------|------------------|---------------------------|
|------------------|--7-7-7-7-7-7-7-7-|------------------|---------------------------|
|--7-7-7-7-7-7-7-7-|--7-7-7-7-7-7-7-7-|--8-8-8-8-8-8-8-8-|--10-10-10-10-10-10-10-10--|
|--7-7-7-7-7-7-7-7-|--5-5-5-5-5-5-5-5-|--8-8-8-8-8-8-8-8-|--10-10-10-10-10-10-10-10--|
|--5-5-5-5-5-5-5-5-|------------------|--6-6-6-6-6-6-6-6-|--8--8--8--8--8--8--8--8---|x2

GUITAR 2 JUMPS IN AT SECOND TIME VERSE 3 IS PLAYED
|--------------------------|-----------------|-----------------|-----------------|
|--------------------------|-----------------|-----------------|-----------------|
|--10-10-10-10-10-10-10-10-|-7-7-7-7-7-7-7-7-|-3-3-3-3-3-3-3-3-|-5-5-5-5-5-5-5-5-|
|--X--X--X--X--X--X--X--X--|-X-X-X-X-X-X-X-X-|-X-X-X-X-X-X-X-X-|-X-X-X-X-X-X-X-X-|
|--8--8--8--8--8--8--8--8--|-5-5-5-5-5-5-5-5-|-1-1-1-1-1-1-1-1-|-3-3-3-3-3-3-3-3-|
|--------------------------|-----------------|-----------------|-----------------|



BRIDGE - GUITAR 1  "if we could do it al again"
|---------------------------|---------------------------|---------------------------|
|---------------------------|---------------------------|---------------------------|
|--12-12-12-12-12-12-12-12--|--14-14-14-14-14-14-14-14--|--12-12-12-12-12-12-12-12--|
|--12-12-12-12-12-12-12-12--|--12-12-12-12-12-12-12-12--|--12-12-12-12-12-12-12-12--|
|---------------------------|---------------------------|---------------------------|
|---------------------------|---------------------------|---------------------------|

|---------------------------|
|---------------------------|
|--14-14-14-14-14-14-14-14--|
|--12-12-12-12-14-14-14-14--|
|---------------------------|
|---------------------------|

GUITAR 2 - clean sound "I don't wanna sing this song to make you feel better"
|----------------------|---------------------|------------------------|------------------|
|----------------------|---------------------|------------------------|------------------|
|---------10-----------|--------10-----------|------------------------|------------------|
|----10--------10---10-|---10--------10---10-|----------12------------|-----8-------10---|
|--8----8---------8----|-7----7---------7----|----12---------12----12-|---8------10------|
|----------------------|---------------------|-10----10---------10----|-6------8---------|


REPEAT CHORUS


REPEAT VERSE 2


REPEAT CHORUS ONLY 1 TIME


REPEAT VERSE 3 



FINAL CHORD - let it ring
|-------------|
|-------------|
|--10---------|
|--10---------|
|--8----------|
|-------------|
Добавлено: 18.06.2012
Другие материалы по этой песне:

Страница создана 07.05.2012
http://primanota.ru/stereo/last-forever-chords.htm
Привет, Гость.
Предлагаем пройти революционный курс по гитаре.
Подарок от PrimaNota.Ru, забирай!