PrimaNota.ru - самый крупный в мире бесплатный архив песенных текстов, аккордов, табулатур и нот


Stereo - Do Ya - таба, видео

Регистрация Запомнить меня
Войти через:  Facebook Google Twitter Vk Yandex Mail.ru

Stereo - Do Ya - таба, видео

Печатать
Просмотров: 151
Artist: STEREO
Title: Do Ya
Tabbed by: Daan Koch

Tuning: Drop D, (D-A-D-G-B-E)

Theme, repeat 2x:
E--------------------------------------|------------------------------|
B--------------------------------------|------------------------------|
G--------------------------------------|------------------------------|
D-------------------13--13-13-13-13----|---------------13--13-13-13-13|
A-x-x-13b15r-11-----11--11-11-11-11óx-x|13b15r-11------11--11-11-11-11|
D--------------13-11-------------------|---------13-12-11-------------|


Verse, repeat 4x:
E-----------------------------------|---------------------------------|
B-----------------------------------|---------------------------------|
G---11--11---13---13-13---13-13-----|-11--11---13---13-13---13-13-----|
D---(mute with index finger left h.)|---------------------------------|
A---11--11---11---11-11---11-11-----|-11--11---11---11-11---11-11-----|
D------------11---11-11---11-11-----|----------11---11-11---11-11-----|

Prechorus:
E---------------------------------------|-----------------------------|
B---------------------------------------|-----------------------------|
G---------------------------------------|-----------------------------|
D-11-11-11-11----11-11-11-11----11-11---|11-11-11-11----11-11-11-11---|
A-9--9--9--9-----9--9--9--9-----9--9----|9--9--9--9-----9--9--9--9----|
D-9--9--9--9-x-x-9--9--9--9-x-x-9--9-x-x|8--8--8--8-x-x-8--8--8--8-x-x|

E------------|---------------------------------------|----------------|
B------------|---------------------------------------|----------------|
G------------|---------------------------------------|----------------|
D---11-11----|11-11-11-11----11-11-11-11----11-11----|11--11--11--11--|
A---9--9-----|7--7--7--7-----7--7--7--7-----7--7-----|7---7---7---7---|
D---8--8-x-x-|7--7--7--7-x-x-7--7--7--7-x-x-7--7-x-x-|7---7---7---7---|


E---------------------------------------------------------------------|
B---------------------------------------------------------------------|
G---------------------------------------------------------------------|
D---11--11-11-1111-11-------------------------------------------------|
A---7/9-9--9--9/11-11-------------------------------------------------|
D---7/9-9--9--9/11-11-------------------------------------------------|

Chorus, repeat 2x:
E-----------------------------|---------------------------------------|
B-----------------------------|---------------------------------------|
G-----------------------------|---------------------------------------|
D---10--8----6---6-6--6-6-----|--10--8----6---6-6--6-6----------------|
A---6---6----4---4-4--4-4-----|--6---6----4---4-4--4-4----------------|
D---6---6-x--4---4-4--4-4-----|--6---6-x--4---4-4--4-4----------------|


E-----------------------------|---------------------------------------|
B-----------------------------|---------------------------------------|
G---6--6--6--6--6--6--6--6----|---9/9--9--9--9--9/11--11--11/13-------|
D---6--6--6--6--6--6--6--6----|---6/9--9--9--9--9/11--11--11/13-------|
A---4--4--4--4--4--4--4--4----|---4/7--7--7--7--7/9---9----9/11-------|
D-----------------------------|---------------------------------------|

- Verse
- Prechorus
- Chorus

Bridge, repeat 6x:

E-----------------------------------|---------------------------------|
B---9-9-x-9-x-x-9-9-x-9-x-x-9-9-x-x-|-9-9-x-9-x-x-9-9-x-9-x-x-9-9-x-x-|
G--(mute with index finger left h.)-|---------------------------------|
D---6-6-x-6-x-x-6-6-x-6-x-x-6-6-x-x-|-6-6-x-6-x-x-6-6-x-6-x-x-6-6-x-x-|
A-----------------------------------|---------------------------------|
D-----------------------------------|---------------------------------|

Then:
E-----------------------------------|---------------------------------|
B---9-9-x-9-x-x-9-9-x-9-x-x-9-9-x-x-|---------------------------------|
G-----------------------------------|---------------------------------|
D---6-6-x-6-x-x-6-6-x-6-x-x-6-6-x-x-|--9-9-9-6-6-6-2-2-2-6-6-6-7-7----|
A-----------------------------------|---------------------------------|
D-----------------------------------|--9-9-9-6-6-6-2-2-2-6-6-6-7-7----|

- Repeat chorus till end..
Добавлено: 02.06.2012
Другие материалы по этой песне:
  • Аккорды и текст

Страница создана 02.06.2012
http://primanota.ru/stereo/do-ya-chords.htm
Привет, Гость.
Предлагаем пройти революционный курс по гитаре.
Подарок от PrimaNota.Ru, забирай!