PrimaNota.ru - самый крупный в мире бесплатный архив песенных текстов, аккордов, табулатур и нот


Stereo Pony - Effective Line - бас-таба, видео

Регистрация Запомнить меня
Войти через:  Facebook Google Twitter Vk Yandex Mail.ru

Stereo Pony - Effective Line - бас-таба, видео

Печатать
Просмотров: 179
-----------------------------------------------------------------------------
Effective Line – Stereo Pony
-----------------------------------------------------------------------------
Tabbed by: streetfightingbass (Lucas) 
Tuning: EADG
Email: dvs_rds@yahoo.ca

This song is played fast! But it is a bit easier to play than it looks.
Email me any questions, comments.

INTRO: *Notes are not separated, but you can count off 7 sets of 8 open E’s. 
G|--------------------------------------------------------------------------|
D|--------------------------------------------------------------------------|
A|--------------------------------------------------------------------------|
E|-00000000-00000000-00000000-00000000-00000000-00000000-00000000-----------|

*Those are D notes (10th fret on the E string), not F’s and E’s (1’s and 0’s).
G|--------------------------------------------------------------------------|
D|--------------------------------------------------------------------------|
A|--------------------------------------------5/7-777-----------------------|
E|-10\8-88888888-1010101010101010-77777777-00---------10--------------------|

G|--------------------------------------------------------------------------|
D|--------------------------------------------------------------------------|
A|------------------------------5/7-7777------------------------------------|
E|-88888888-1010101010101010-00----------33-2-0-2/5\2-----------------------|

G|--------------------------------------------------------------------------|
D|--------------------------------------------------------------------------|
A|--------------------------------------------------------------------------|
E|-00000000-000000-3/10\3-000000000-00000000--------------------------------|

BASS SOLO PART: *FAST!!! 
G|---------------------16-14---14---------16--------------------------------|
D|-12/14-141414-141414-------17--17-14-14---14-14-12-14-12------------------|
A|---------------------------------------------------------14-12------------|
E|---------------------------------------------------------------15-14-12\0-|

G|--------------------------------------------------7h9---------------------|
D|--------------------------------------------------------------------------|
A|------------------------------------77777777-7777-------------------------|
E|-00000000-0000010-00000000-00000000--------------------0--3--5--7/10\8----|

G|--------------------------------------------------------------------------|
D|--------------------------------------------------------------------------|
A|---------------------------------------5/7-777----------------------------|
E|-88888888-1010101010101010-77777777-00---------10-------------------------|

G|--------------------------------------------------------------------------|
D|--------------------------------------------------------------------------|
A|--------------------------------------------------------------------------|
E|-88888888-1010101010101010-0000-3333-5555-7777----------------------------|

G|------------------------------------------9-11-12-11-9--------------------|
D|--------------------------------7/9-99-12---------------------------------|
A|--------------------------------------------------------------------------|
E|-88888888-1010101010101010-7777-------------------------------------------|


ENDING:
G|--------------------------------------------------------------------------|
D|--------------------------------------------------------------------------|
A|--------------------------------------------------------------------------|
E|-88888888-1010101010101010-0000-3333/101010-12\0--------------------------|

Добавлено: 12.11.2013
Вам также может быть интересно:
Другие материалы по этой песне:
  • Аккорды и текст

Страница создана 12.11.2013
http://primanota.ru/stereo-pony/effective-line-chords.htm
Привет, Гость.
Предлагаем пройти революционный курс по гитаре.
Подарок от PrimaNota.Ru, забирай!