PrimaNota.ru - самый крупный в мире бесплатный архив песенных текстов, аккордов, табулатур и нот


Sterbend - Winterwald - бас-таба, видео

Регистрация Запомнить меня
Войти через:  Facebook Google Twitter Vk Yandex Mail.ru

Sterbend - Winterwald - бас-таба, видео

Печатать
Просмотров: 49
Tabbed by: 6METAL6BASSIST6
E-mail: petergriffinav@gmail.com

Tuning: EADG

G|----------------------------------------------------------------|.
D|----------------------------5---5-------5---5---5---------------|.
A|5-------5---5---5---6---6---------------------------6---6---3---|.
E|----------------------------------------------------------------|.
                                                                   . x4
G|----------------------------------------------------------------|.
D|----------------------------5---5-------5---6---6---5---5-------|.
A|5-------5---5---5---6---6-----------------------------------6---|.
E|----------------------------------------------------------------|.

G|--------------------------------|
D|--------------------------------|
A|5-------------------------------|
E|--------------------------------|

G|------------------------------------------------------------------------------------------------|
D|------------------------------------------------------------------------------------------------|
A|------------------------------------------------------------------------------------------------|
E|------------------------------------------------------------------------------------------------|

G|------------------------------------------------------------------------------------------------|
D|------------------------------------------------------------------------------------------------|
A|------------------------------------------------------------------------------------------------|
E|0-----------------------------------------------------------------------------------------------|


0:43

G|------------------------------------------------------------------------------------------------|
D|------------------------------------------------------------------------------------------------| x4
A|------------------------------------------------------------------------2-----------------------|
E|0-----------------------0-----------------------0-----------------------------------------------|

G|------------------------------------------------------------------------------------------------|
D|------------------------------------------------------------------------------------------------| x2
A|------------------------------------------------------------------------------------------------|
E|0-----------------------------------------------------------------------------------------------|

G|------------------------------------------------------------------------------------------------|
D|------------------------------------------------------------------------------------------------| x4
A|------------------------------------------------------------------------2-----------------------|
E|0-----------------------0-----------------------0-----------------------------------------------|

G|------------------------------------------------------------------------------------------------|
D|------------------------------------------------------------------------------------------------| x2
A|------------------------------------------------------------------------------------------------|
E|0-----------------------------------------------------------------------------------------------|

G|------------------------------------------------------------------------------------------------|
D|------------------------------------------------------------------------------------------------| x4
A|------------------------------------------------------------------------2-----------------------|
E|0-----------------------0-----------------------0-----------------------------------------------|

G|------------------------------------------------|
D|------------------------------------------------|
A|------------------------------------------------|
E|0-----------------------------------------------|

2:26

G|----------------------------------------------------------------|.
D|----------------------------------------------------------------|.
A|--------------------------------2---2---2---2---2---2---2-------|.
E|0---0---0---0---0---0---0---------------------------------------|.
                                                                   .
G|----------------------------------------------------------------|.
D|----------------------------------------------------------------|.
A|----------------------------------------------------------------|.
E|3---3---3---3---3---3---3---3---3---3---3---3---3---3---3-------|.
                                                                   . x8
G|----------------------------------------------------------------|.
D|----------------------------------------------------------------|.
A|--------------------------------2---2---2---2---2---2---2-------|.
E|0---0---0---0---0---0---0---------------------------------------|.
                                                                   .
G|----------------------------------------------------------------|.
D|----------------------------------------------------------------|.
A|----------------------------------------------------------------|.
E|3---3---3---3---3---3---3---5---5---3---3---2---2---3---3---2---|.

4:23

G|------------------------------------------------------------------------------------------------|
D|------------------------------------------------------------------------------------------------| x8
A|------------------------------------------------------------------------2-----------------------|
E|0-----------------------0-----------------------0-----------------------------------------------|

G|----------------------------------------------------------------|
D|----------------------------------------------------------------| x4
A|----------------------------------------------------------------|
E|0---------------------------------------------------------------|

5:25

G|----------------------------------------------------------------|
D|----------------------------------------------------------------| x7
A|----------------------------------------------------------------|
E|0---------------0---------------3---------------2---------------|

G|----------------------------------------------------------------|
D|----------------------------------------------------------------|
A|----------------------------------------------------------------|
E|0---------------0---------------3-------------------------------|

G|----------------------------------------------------------------|
D|----------------------------------------------------------------|
A|----------------------------------------------------------------|
E|0---------------------------------------------------------------|
Добавлено: 30.12.2015
Другие материалы по этой песне:
  • Аккорды и текст

Страница создана 30.12.2015
http://primanota.ru/sterbend/winterwald-chords.htm
Привет, Гость.
Предлагаем пройти революционный курс по гитаре.
Подарок от PrimaNota.Ru, забирай!