PrimaNota.ru - самый крупный в мире бесплатный архив песенных текстов, аккордов, табулатур и нот


Stephen Stills - Do For The Others - аккорды и текст, таба, видео

Регистрация Запомнить меня
Войти через:  Facebook Google Twitter Vk Yandex Mail.ru

Stephen Stills - Do For The Others - аккорды и текст, таба, видео

Печатать
Просмотров: 183
Do For The Others
Stephen Stills


From: Harlan L Thompson 

DO FOR THE OTHERS- Stephen Stills

INTRO

G(no3)        G7sus4        Fsus2 C/E      C     G(no3)
Round, round, up and down....
G(no3)     G7sus4     Fsus2  C/E      C              G(no3)
See him sinkin' low, doesn't see ...

CHORUS:
       F/G C/G         G(no3)  
And he cries ...
       F/G C/G         G(no3)
And he lies, ....
       C/G G(no3)
She is gone, there ...
      C/G G(no3)           Fsus4       C           G(no3)
It is done, so now he must borrow ....
               Fsus2      C          G  C/G G(no3)
And living in sorrow must ...

BRIDGE (strum):
C7M/G   G(no3)   C7M/G   G(no3) D  C  C/G G
Oooh-------      ooooh------


A chill wind hits his face, was ....

CHORUS, BRIDGE
INTRO


INTRO AND ALSO FIRST LINE OF LYRICS:
   G(no3)       G7sus4      Fsus2   C/E   C      G(no3)
E --3-------3-----1-0-----------1-------------------3---3------0------3-
B --------------------1-------------1-----1---1-----3-----------------3-
G ------0-------0-----------0-----0-----0---------0-0-------0-------0---
D ----0-------0-----0-----0---3-------2---------0---------0-------0-----
A ------------------------------------------3---------------------------
E --3-----3------3-----3----------------------------3--------3--------3-

CHORDS:
 G(no3) G7sus4 Fsus2  C/E   F/G   C/G C7M/G   C/G
E ---3-----1-----1-----0-----1-----0-----0-----3---
B ---3-----1-----1-----1-----1-----1-----0-----1---
G ---0-----0-----0-----0-----2-----0-----0-----0---
D ---0-----0-----3-----2-----3-----2-----2-----2---
A ---x-----x-----x-----x-----3-----3-----3-----x---
E ---3-----3-----x-----x-----3-----3-----3-----3---


(from Stephen Stills, 1970)
(sent by Harlan at harlant@hawaii.edu)


Добавлено: 25.11.2013
Другие материалы по этой песне:
  • Аккорды и текст

Страница создана 21.05.2012
http://primanota.ru/stephen-stills/do-for-the-others-chords.htm
Привет, Гость.
Предлагаем пройти революционный курс по гитаре.
Подарок от PrimaNota.Ru, забирай!