PrimaNota.ru - самый крупный в мире бесплатный архив песенных текстов, аккордов, табулатур и нот


Stephen Malkmus - Kill The Saints - таба, видео

Регистрация Запомнить меня
Войти через:  Facebook Google Twitter Vk Yandex Mail.ru

Stephen Malkmus - Kill The Saints - таба, видео

Печатать
Просмотров: 68
-------------------------------------------------------------------------------
                             Freeze the Saints - Stephen Malkmus
-------------------------------------------------------------------------------
Tabbed by:Pape
E-mail:pape@web-pape.net

Tuning:standard

This is a simplified version.

Intro / Riff 1
                                                                      x2                              x2
E|--------|------------------------------|-5-----------2-----------0----|------------------------------|
B|--------|-7-----------7-----------5----|------------------------------|-5-----------5-----------3----|
G|--------|-----7-----------7------------|-----0-----------0------------|-----5-----------5------------|
D|--------|------------------------------|-0-------0---0-------0---0----|------------------------------|
A|--------|-5-------5---4-------4---0----|------------------------------|-3-------3---2-------2---0----|
E|--------|------------------------------|------------------------------|------------------------------|


D

    G       D
We meet again

A                         G   
Riding our divisible bodies

Bm        Fm#
Feel no shame

G               D
Luck is love is on

        G       D
If you need the pain

         A                             G
Well you are, yes you are so much like me

Bm      Fm#     G                 D
Seasons change--nothing lasts for long

G                    D
Except the earth and the mountains

   G             D                  Riff 1
So learn to sing along and languish here

Help me languish here


************************************

| /   slide up
| \   slide down
| h   hammer-on
| p   pull-off
| ~   vibrato
| +   harmonic
| x   Mute note
| b   Bend
| pb  Pre-bend
| br  Bend release
| pbr Pre-bend release
| brb Bend release bend

************************************
Добавлено: 27.06.2016
Другие материалы по этой песне:
  • Аккорды и текст

Страница создана 27.06.2016
http://primanota.ru/stephen-malkmus/kill-saints-chords.htm
Привет, Гость.
Предлагаем пройти революционный курс по гитаре.
Подарок от PrimaNota.Ru, забирай!