PrimaNota.ru - самый крупный в мире бесплатный архив песенных текстов, аккордов, табулатур и нот


Stephen Malkmus And The Jicks - Us - бас-таба, видео

Регистрация Запомнить меня
Войти через:  Facebook Google Twitter Vk Yandex Mail.ru

Stephen Malkmus And The Jicks - Us - бас-таба, видео

Печатать
Просмотров: 95
			Us - Stephen Malkmus and the Jicks

Tabbed By : Thunderbird bassist
e-mail: xsarahberries@netscape.net

This is an easy song; just repeat, repeat, repeat and add color to make it jam.
Tuning: standard

Verse
G|---------------------------------------------------------------------------|
D|------7h9-------7h9--------------------------------------------------------|
A|-7-77-----7-7-7------------------------------------------------------------|
E|---------------------------------------------------------------------------|


“… that we can go”
G|---------------------------------------------------------------------------|
D|---------------------------------------------------------------------------|
A|--------------------7*-----------------------------------------------------|
E|--7----5----5--------------------------------------------------------------|

*I usually play the E (7th fret A string) for some time hitting an open E on the 4th 
as well.

“We're locked in to talking…”
G|---------------------------------------------------------------------------|
D|---------------------------------------------------------------------------|
A|-7*------------------------------------------------------------------------|
E|---------------------------------------------------------------------------|

On Gypsum's flat you can't do that
G|---------------------------------------------------------------------------|
D|---------------------------------------------------------------------------|
A|--------------------7*-----------------------------------------------------|
E|--7----5----5--------------------------------------------------------------|
Добавлено: 15.06.2012
Другие материалы по этой песне:
  • Аккорды и текст

Страница создана 15.06.2012
http://primanota.ru/stephen-malkmus-and-the-jicks/us-chords.htm
Привет, Гость.
Предлагаем пройти революционный курс по гитаре.
Подарок от PrimaNota.Ru, забирай!