PrimaNota.ru - самый крупный в мире бесплатный архив песенных текстов, аккордов, табулатур и нот


Stephen Malkmus And The Jicks - No One Is As I Are Be - таба, видео

Регистрация Запомнить меня
Войти через:  Facebook Google Twitter Vk Yandex Mail.ru

Stephen Malkmus And The Jicks - No One Is As I Are Be - таба, видео

Печатать
Просмотров: 67
Hey guys this song hasn't been done anywhere which is a real shame. This is exactly how 
Malkmus plays it - all thats missing is the little fills which are pretty easy to figure out

To tune: First you'll want to tune your "thickest" E string to C (two steps). Then you 
drop your A string a full step down to G.


e|--------------------------------------------------------|
B|------9-----------10----------------12------------10----|
G|--------------------------------------------------------| x 4
D|----9---9------11-----11----------12---12------11----11-|
G|-9----------9-----------------9------------9------------|
C|--------------------------------------------------------|
"I can't contain the motion..."

e|--------------------------------------------------|
B|------2-----------3------------5------------3-----|
G|--------------------------------------------------|
D|----2---2-------4----4------5----5-------4-----4--|
G|-2-----------2----------2------------2------------|
C|--------------------------------------------------|
"I can bend the rules..."

e|--------------------------------------------------|
B|------4-----------5------------7------------5-----|
G|--------------------------------------------------|
D|----4---4-------6----6------7----7-------6-----6--|
G|-4-----------4----------4------------4------------|
C|--------------------------------------------------|
"...and stutters"

e|--------------------------------------------------------|
B|------9-----------10----------------12------------10----|
G|--------------------------------------------------------| x2
D|----9---9------11-----11----------12---12------11----11-|
G|-9----------9-----------------9------------9------------|
C|--------------------------------------------------------|
"I feel right at home inside the wood shed..."

e|--------------------------------------------------|
B|------2-----------3------------5------------3-----|
G|--------------------------------------------------|
D|----2---2-------4----4------5----5-------4-----4--|
G|-2-----------2----------2------------2------------|
C|--------------------------------------------------|
"And the heart the part...

e|--------------------------------------------------|
B|------4-----------5------------7------------5-----|
G|--------------------------------------------------|
D|----4---4-------6----6------7----7-------6-----6--|
G|-4-----------4----------4------------4------------|
C|--------------------------------------------------|
"..friend"

e|-----------------------------------------------------|
B|-------2------------2--------------------------------|
G|-----------------------------------------------------|
D|----2----2-------2-----2-----------------------------|
G|-2------------2---------------2h4--2--0--------------|
C|-------------------------------------------4---4-2-4-|
"When will it end?"

e|-------------------------------------------------|
B|-------------------------------------------------|
G|-------4-----------6------------7---------6------|
D|----6----6------7-----7------9----9----7----7----| x 4
G|--------------6-----------7----------6-----------|
C|-4-----------------------------------------------|

e|--------------------------------------------------|
B|------2-----------3------------5------------3-----|
G|--------------------------------------------------|
D|----2---2-------4----4------5----5-------4-----4--|
G|-2-----------2----------2------------2------------|
C|--------------------------------------------------|
"From the never ending wildlife that we..."

e|--------------------------------------------------|
B|------4-----------5------------7------------5-----|
G|--------------------------------------------------|
D|----4---4-------6----6------7----7-------6-----6--|
G|-4-----------4----------4------------4------------|
C|--------------------------------------------------|
"...shared"

e|--------------------------------------------------------|
B|------9-----------10----------------12------------10----|
G|--------------------------------------------------------|
D|----9---9------11-----11----------12---12------11----11-|
G|-9----------9-----------------9------------9------------|
C|--------------------------------------------------------|
"I can not even do one sit up..."

e|--------------------------------------------------|
B|------2-----------3------------5------------3-----|
G|--------------------------------------------------|
D|----2---2-------4----4------5----5-------4-----4--|
G|-2-----------2----------2------------2------------|
C|--------------------------------------------------|
"I'm busy hanging out..."

e|--------------------------------------------------|
B|------4-----------5------------7------------5-----|
G|--------------------------------------------------|
D|----4---4-------6----6------7----7-------6-----6--|
G|-4-----------4----------4------------4------------|
C|--------------------------------------------------|
"..your mon-ey"


e|-----------------------------------------------------|
B|-------2------------3--------------------------------|
G|-----------------------------------------------------|
D|----2----2-------4-----------------------------------|
G|-2------------2---------------2h4--2--0--------------|
C|-------------------------------------------4---4-2-4-|
"What does it mean?"


e|-----4-|
B|-----5-|
G|-----4-|
D|-----6-| x4
G|-----4-|
C|-4---4-|

Chord progression during the "Na na" break

e|---------------------------------------0-------------------|
B|----4----5----2----0--------------2----0----2----5----7----|
G|----4----4----2----1--------------2----1----2----4----7----|
D|----4----6----2----1----4----2----2----1----2----6----7----|
G|----4----6----2----1----2----1----2----1----2----6----7----|
C|------------------------2----1-----------------------------|

Then right before "Want to be now..."
e|------------------|
B|--7--5---9-9--2---|
G|--7--4---9-9--2---|
D|--7--6---9-9--2---|
G|--7--6---9-9--2---|
C|------------------|

e|-------------------------------------------------|
B|-------------------------------------------------|
G|-------4-----------6------------7---------6------|
D|----6----6------7-----7------9----9----7----7----| Repeat till end
G|--------------6-----------7----------6-----------|
C|-4-----------------------------------------------|

There might be one more switch at the end but it's not audible over the piano

Enjoy!

John K
Добавлено: 15.11.2013
Другие материалы по этой песне:
  • Аккорды и текст

Страница создана 15.11.2013
http://primanota.ru/stephen-malkmus-and-the-jicks/no-one-is-as-i-are-be-chords.htm
Привет, Гость.
Предлагаем пройти революционный курс по гитаре.
Подарок от PrimaNota.Ru, забирай!