PrimaNota.ru - самый крупный в мире бесплатный архив песенных текстов, аккордов, табулатур и нот


Stephen Malkmus And The Jicks - Dark Wave - бас-таба, видео

Регистрация Запомнить меня
Войти через:  Facebook Google Twitter Vk Yandex Mail.ru

Stephen Malkmus And The Jicks - Dark Wave - бас-таба, видео

Печатать
Просмотров: 102
			Dark Wave- Stephen Malkmus and the Jicks



Tabbed By : Thunderbird bassist
e-mail: xsarahberries@netscape.net


Tuning: standard

Intro (4xs)
G|--------------------------------------------------------------------------|
D|--------------------------------------------------------------------------|
A|---------------6666-5555-3333---------------------------------------------|
E|-33333333-2222------------------------------------------------------------|


Enter Malkmus verse (2xs)
G|--------------------------------------------------------------------------|
D|--------------------------------------------------------------------------|
A|--------------------------------------------------------------------------|
E|--3333-2222--333-555------------------------------------------------------|

A bit softer as we bridge (2xs)
G|--------------------------------------------------------------------------|
D|--------------------------------------------------------------------------|
A|---------------6666-5555-3333---------------------------------------------|
E|-33333333-2222------------------------------------------------------------|

The semi chorus of ‘Risin' risin'” (2xs)
G|--------------------------------------------------------------------------|
D|-5-4-1-------------------------5-4-1--------------------------------------|
A|-------5--------6-5-3-1-3-5----------5-------6-5-3-1-3-5------------------|
E|------------3-2---------------------------3-2-----------------------------|

Then back to the intro.
This is a very simple song to play; I hope you enjoy it as much as I do.

The Risin' risin' part can be played deeper by using this progression

G|---------------------------------------------------------------------------|
D|---------------------------------------------------------------------------|
A|------6-5------------------------------------------------------------------|
E|--3-2----------------------------------------------------------------------|


Добавлено: 15.04.2012
Другие материалы по этой песне:
  • Аккорды и текст

Страница создана 15.04.2012
http://primanota.ru/stephen-malkmus-and-the-jicks/dark-wave-chords.htm
Привет, Гость.
Предлагаем пройти революционный курс по гитаре.
Подарок от PrimaNota.Ru, забирай!