PrimaNota.ru - самый крупный в мире бесплатный архив песенных текстов, аккордов, табулатур и нот


Stephen Bishop - Little Italy - аккорды и текст, видео

Регистрация Запомнить меня
Войти через:  Facebook Google Twitter Vk Yandex Mail.ru

Stephen Bishop - Little Italy - аккорды и текст, видео

Печатать
Просмотров: 116
Little Italy
Stephen Bishop
LITTLE ITALY by STEPHEN BISHOP
TABBED by BURNEE
Capo II
ACTIONS (Hon) HAMMER ON  (Hoff) HAMMER OFF (S) SLIDE
RIFF
------------------------------------------------0-
------------------------------------------------0-
----(Hon)---(Hoff)---(S)----(S)-----------------1-
--2-------4-------2------1------2------(S)------2-
-------------------------------------4------6---2-
------------------------------------------------0-

INTRO (Chords Once Each)
|:| E   Aadd2/F   B11/E  B11/E  B11/Eadd4  B11/E |:|x4    A/B


  E  Aadd2/F B11/E  B11/Eadd4 A/B C#m7  G#m7  AMaj7  F#madd4 Gmadd4 G#madd4 AMaj7/E
--0----0------0---------0------0----4-----4-----0-------2-------3------4-------0
--0----0------4---------5------5----5-----4-----2-------2-------3------4-------5
--1----6------4---------4------6----4-----4-----1-------2-------3------4-------6
--2----7------4---------4------7----6-----4-----2-------4-------5------6-------6
--2----7------0---------0------7----4-----6-----0-------2-------3------4-------0
--0----0------0---------0------7----4-----4-----0-------2-------3------4-------0



                   E
Can't you hear the parade
C#m7       G#m7      
Somebody's calling my name
C#m7         G#m7          
There on the sidewalk
 AMaj7                        F#madd4       
And all the people turn their heads to see
   E
Ah mama, 
             C#m7     G#m7
Am I holding onto the wings of a prayer

 C#m7       G#m7
Waiting for Rosie, 
AMaj7          F#madd4
Tell me do ya think she cares

F#madd4 Gmadd4  G#madd4        AMaj7/E
Ah,     just    dancing in the streets, 
   F#madd4  A/B             Repeat INTRO x2
In little Italy
F#madd4 Gmadd4  G#madd4        AMaj7/E
Ah, there all dancing in the streets, 
    A/B           INTRO x2   A/B
in little Italy

                   E 
You say I'm an old woman
         C#m7                      G#m7 
And your old enough to live your own life
        C#m7         G#m7 
But stay out of the barrels
AMaj7                          F#madd4      
The boys are seeing you with the clowns
       E
Ah but Rosie, 
           C#m7             G#m7
She gotta rainbow round her shoulder
    C#m7       G#m7
You better not loose her, 
AMaj7                   F#madd4
Wild flowers make her heart go sing

F#madd4 Gmadd4  G#madd4        AMaj7/E 
Ah,     there   dancing in the streets, 
   A/B             Repeat INTRO x2
In little Italy
F#madd4 Gmadd4  G#madd4        AMaj7/E
Ah, there are dancing in the streets, 
   A/B             Repeat INTRO x2
In little Italy

               E 
Do do do do do do do
C#m7       G#m7      
Do do do do do do do
C#m7       G#m7      
Do do do do do do do
AMaj7  F#madd4  AMaj7/E  F#madd4
 Bah     bah     bah      bah


F#madd4 Gmadd4  G#madd4        AMaj7/E
Ah, there all dancing in the streets,
   A/B             Repeat INTRO x2
In little Italy
F#madd4 Gmadd4  G#madd4        AMaj7/E
Ah, there are dancing in the streets, 
   A/B             
In little Italy

FMaj9/G  A/B  C#m11no5  FMaj9/G  E  RIFF (Repeat INTRO x2)

ENDING CHORDS

   FMaj9/G  A/B  C#m11no5  
------0------0-------7----
------1------5-------8----
------2------6-------9----
------3------7-------9----
------3------7-------9----
------3------7-------9----
Добавлено: 14.03.2014
Другие материалы по этой песне:

Страница создана 31.03.2012
http://primanota.ru/stephen-bishop/little-italy-chords.htm
Привет, Гость.
Предлагаем пройти революционный курс по гитаре.
Подарок от PrimaNota.Ru, забирай!