PrimaNota.ru - самый крупный в мире бесплатный архив песенных текстов, аккордов, табулатур и нот


Stephanie Lapointe - Une Fleur - аккорды и текст, видео

Регистрация Запомнить меня
Войти через:  Facebook Google Twitter Vk Yandex Mail.ru

Stephanie Lapointe - Une Fleur - аккорды и текст, видео

Печатать
Просмотров: 136
Уроки эстрадного вокала в Санкт-Петербурге
Une Fleur
Stephanie Lapointe
-------------------------------------------------------------------------------
			  Une Fleur - Stéphanie Lapointe
-------------------------------------------------------------------------------
composed by:	Pierre Lapointe, Philippe B

Tabbed by: 	neuroxik (tablatures, piano, bass and strings arrangements for
			  guitar)

Tuning:		Standard (EADGBe)

Notice:		Because the song is in french and will probably aim a french
	public, I've put the notes in french so they can understand.

-------------------------------------------------------------------------------

Am(2)
- 8
- 10
- 9
- 10
- 0
-

-------------------------------------------------------------------------------

Am     C         Dm             Am
Il y a une fleur   qui a poussé sur mon coeur

   Dm           Am                   F          C
S'abreuvant à même les pleurs, d'une âme sans sa  soeur

F               C            F                    C
  Et quand le soleil l'anime d'une autre flamme câline

F                    C                 E                    Am
  Elle se lasse  trouvant le temps, toujours moins bien qu'avant


>> Riff A
    Am            C               Dm          E
Le  temps où tu disais vouloir rester à mes côtés
   Am              C             Dm                E
Et dans la chaleur cultiver  des bonheurs par milliers

B                         E
Si l'amour pouvait.... rester


Am     Dm       E             Am(2)
Il y a une fleur qui a poussé sur mon coeur

Am           Dm   E            Am(2)
En pensant à toi, en pensant à moi

Am     Dm        E              F
Il y a une fleur   qui a poussé sur mon coeur

Dm           B    E
En pensant à toi, mais tu n'en veux pas


== INTERLUDE ==
		note: Les accords écrits par-dessus la tablature ci-dessous
		pour l'interlude représente ce par quoi vous pouvez les
		remplacer si vous préférez le jouer en "accords ouvert".
		Voir les notes à la fin de cette page pour consulter les
		accords et leurs formes.


  Am        C6(no5)     Asus4/B  D/Bb
--12--------8-----------5---------------------|--|
----13--------10----------5------3---3---(3)--|--|
------14---------9----------7------5---5------|--|  X 6
----------------------------------------------|--|
--0------------------------------1------------|--|
------------8-----------7---------------------|--|

(La la la la la...)


Am     C         Dm           Am
Il y a une fleur  qui a perdu sa couleur

  Dm              Am              F         C
À force d'empiler la tristesse, l'étude des heures

F              C            F               C
  Car le soleil envenime un coup de chaleur qui abîme

    F                    C           E          Am
Les fleurs se retrouvent face aux lassitudes du temps


>> Riff A
    Am          C             Dm          E
Oh! Si l'amour avait voulu rester à nos côtés
     Am        C                Dm                E
Pour cultiver avec une fleur et bonheurs par milliers

B                        E
Si l'amour voulait... rester


Am     Dm        E             Am(2)
Il y a une fleur  qui a poussé sur mon coeur

Am           Dm   E            Am(2)
En pensant à toi, en pensant à moi

Am     Dm        E             F
Il y a une fleur  qui a poussé sur mon coeur

Dm           B     E                   Am
En pensant à toi,    mais tu n'en veux pas


[fin]

-------------------------------------------------------------------------------
Notes:
===============================================================================

Riff A
   Am   C   Dm   E
---5----8---10---12--||--------------------------------------------------------|
---5----8---10---12--||--------------------------------------------------------|
---5----9---10---13--||--------------------------------------------------------|
---7---10---12---14--||--------------------------------------------------------|
---7---10---12---14--||--------------------------------------------------------|
---5----8---10---12--||--------------------------------------------------------|


INTERLUDE
Voici les accords utilisés dans l'interlude

  Am   C6(no5)  Asus4/B   D/Bb
--0----------------------------------------------------------------------------|
--1-----1-------3----------3---------------------------------------------------|
--2-----2-------2----------2---------------------------------------------------|
--2-----2-------2----------0---------------------------------------------------|
--0-----3-------2----------1---------------------------------------------------|
-------------------------------------------------------------------------------|
Добавлено: 01.07.2012
Вам также может быть интересно:
Другие материалы по этой песне:
  • Аккорды и текст

Страница создана 01.07.2012
http://primanota.ru/stephanie-lapointe/une-fleur-chords.htm
Привет, Гость.
Предлагаем пройти революционный курс по гитаре.
Подарок от PrimaNota.Ru, забирай!