PrimaNota.ru - самый крупный в мире бесплатный архив песенных текстов, аккордов, табулатур и нот


Stephane Wrembel - Human Condition I - Peace - таба, видео

Регистрация Запомнить меня
Войти через:  Facebook Google Twitter Vk Yandex Mail.ru

Stephane Wrembel - Human Condition I - Peace - таба, видео

Печатать
Просмотров: 144
From the 2014 album Dreamers of Dreams. Support the artist.

Live version can be found https://www.youtube.com/watch?feature=player_detailpage&v=Slkcwp4hK7w#t=1397







-------------------------------------------------------------------------------
              Human Condition I : Peace - Stephane Wrembel
-------------------------------------------------------------------------------
Tabbed by: guitar jones
E-mail: wishb_1@hotmail.com

Tuning: Std

e|--------------------------------------------------7-7----------------------|
B|-----12-12-10-10-13-13------------------10-10-8-8--------------------------|
G|-----------------------11-11--------------------------9-9------------------|
D|-9-9----------------------------------9------------------------------------|
A|---------------------------------------------------------------------------|
E|---------------------------------------------------------------------------|



e|---------------------------------------------------------------------------|
B|-----------------10-10-----------------------------------------------------|
G|-----12-12-11-11--------------------12-11----------------------------------|
D|-9-9--------------------------11-14-------14-13----------------------------|
A|---------------------------13-------------------14h15-12-14-15-14----------|
E|---------------------------------------------------------------------------|



e|--------------------------------------------------7-7----------------------|
B|-----12-12-10-10-13-13------------------10-10-8-8--------------------------|
G|-----------------------11-11--------------------------9-9------------------|
D|-9-9----------------------------------9------------------------------------|
A|---------------------------------------------------------------------------|
E|---------------------------------------------------------------------------|



e|---------------------------------------------------------------------------|
B|----------------10-10------------------------------------------------------|
G|-----12-12-11-11---------------12-11------------------------------16-------|
D|-9-9---------------------11-14-------14-13------------------------14-------|
A|----------------------13-------------------15-14-12------------14----------|
E|----------------------------------------------------15-14---12-------------|



e|---------------------------------------------------------------------------|
B|-------10----12----10----12------------08----10----08----10----------------|
G|----09----09----09----09------------09----09----09----09-------------------|
D|-10------------------------------09----------------------------------------|
A|---------------------------------------------------------------------------|
E|---------------------------------------------------------------------------|



e|---------------------------------------------------------------------------|
B|-------08----10--------------07----08----07h08p07----------07--------------|
G|----09----09----09--------08----08----08---------h09-08-09----------09-----|
D|-08--------------------07------------------------------------------09------|
A|---------------------------------------------------------------------------|
E|---------------------------------------------------------------------------|



e|---------------------------------------------------------07----------------|
B|-------10----12----10----13------------08----10----08----------------------|
G|----09----09----09----09------------09----09----09----09-------------------|
D|-10------------------------------09----------------------------------------|
A|---------------------------------------------------------------------------|
E|---------------------------------------------------------------------------|



e|-------------------------------------------------07/12---------------------|
B|-------08----10--------------07----08----07-----08-------------------------|
G|----09----09----09--------08----08----08-------09--------------------------|
D|-08--------------------07---------------------09---------------------------|
A|---------------------------------------------07----------------------------|
E|--------------------------------------------07-----------------------------|



e|--------------------------------------------------7-7----------------------|
B|-----12-12-10-10-13-13------------------10-10-8-8--------------------------|
G|-----------------------11-11--------------------------9-9------------------|
D|-9-9----------------------------------9------------------------------------|
A|---------------------------------------------------------------------------|
E|---------------------------------------------------------------------------|



e|---------------------------------------------------------------------------|
B|-----------------10-10------------08-07------------------------------------|
G|-----12-12-11-11------------06-09------09-08-------------------------------|
D|-9-9---------------------08------------------09-10-07-09-10-09-------------|
A|---------------------------------------------------------------------------|
E|---------------------------------------------------------------------------|



e|--------------------------------------------------7-7----------------------|
B|-----12-12-10-10-13-13------------------10-10-8-8--------------------------|
G|-----------------------11-11--------------------------9-9------------------|
D|-9-9----------------------------------9------------------------------------|
A|---------------------------------------------------------------------------|
E|---------------------------------------------------------------------------|



e|--------------------------------------------------------11---12------------|
B|-----------------10-10-------------------------10-12-13-----12-------------|
G|-----12-12-11-11-------------09-12-11-09-08-11-------------12--------------|
D|-9-9-------------------08-11-----------------------------------------------|
A|---------------------------------------------------------------------------|
E|---------------------------------------------------------------------------|
Добавлено: 04.08.2015
Вам также может быть интересно:
Другие материалы по этой песне:
  • Аккорды и текст

Страница создана 04.08.2015
http://primanota.ru/stephane-wrembel/human-condition-i-peace-chords.htm
Привет, Гость.
Предлагаем пройти революционный курс по гитаре.
Подарок от PrimaNota.Ru, забирай!