PrimaNota.ru - самый крупный в мире бесплатный архив песенных текстов, аккордов, табулатур и нот


Stemage - Teddys Bread - бас-таба, видео

Регистрация Запомнить меня
Войти через:  Facebook Google Twitter Vk Yandex Mail.ru

Stemage - Teddys Bread - бас-таба, видео

Печатать
Просмотров: 84
-----------------------------------------------------------------------------
                TEDDYS BREAD (Actraiser Medley) - Stemage
-----------------------------------------------------------------------------
Tabbed by: Jay
E-mail: explorer57@rocketmail.com
Tuning: Standard
Song: http://www.youtube.com/watch?v=ODrEIF1rCq4


Part 1:                                                     x2
G|-----14p12-------(14)------------(14)-------------(14)----|
D|-12--------15-14--15-----15-14----12--12--14h15-14-12-----|
A|------------------------------15--------------------------|
E|----------------------------------------------------------|

G|-------------------------------------------------|
D|-12p11-12----------------------------------------|
A|-----------12p11-12------------------------------|
E|---------------------13p12-13--10p9-10-----------|


Part 2:                  x2
G|-----------------------|----------------------------------------------|
D|-----------------------|--0-0-2-3-2-0-----------------0-1-0-----------|
A|-5-----------7---------|--------------3--1--------3-3-------3-1-0-----|
E|-------5----------5----|--------------------3---------------------1---|

G|---------------------------------------------------|
D|---------------------------------------3/5-3-------|
A|-0-0-1-3-1-0----------------0-0-2-3-0--------5-----|
E|-------------3-1-0---------------------------------|


Part 3: (First stave is not correct, please send me the correction if you can!)
            x4        x4        x4         x3
G|----------|---------|---------|----------|--------|
D|-4-5-7-5--|-5-7-8-7-|---------|----------|--------|
A|----------|---------|-5-7-8-7-|-4-5-7-5--|-5~-----|
E|----------|---------|---------|----------|--------|

G|----14p12-----------------------------------------------------------------|
D|-12-------15-14-15--15-14----12~--(Dist. Feedback)------------------------|
A|--------------------------15----------------------------------------------|
E|--------------------------------------------------------------------------|


part 4:    x4
G|---------|-----------|
D|---------|-----------|
A|---------|---5/0-----|
E|-1-2-3-4-|-----------|


part 5:                                                              
G|--------------------------------------------------------|
D|-------------------------------4/11~--------------------|
A|--4~-4-5---5-7----7-5-----4~----------------------------|
E|--------------------------------------------------------|
                                          x6
G|----------------------------------------|
D|----------------------------------------|
A|-4--4-4-4--4-4-4-5--5-5-5-7--7-7-7-5----|
E|----------------------------------------|

G|-------------------------------------------------------------------------|
D|-------------------------------------------------------------------------|
A|---6-5------4-3-----4-3----2-1/7----6~--------------------3-3-2-1-0-1-3--|
E|-5-----4--3-----2-3-----2-1------------6-6-5-4-3-4-6---1~----------------|
                                 x2                                    x2
G|-------------------------------|-------------------------------------|
D|---------2/7-------------------|---------3/8-------------------------|
A|-------------------------------|-------------------------------------|
E|-3-3-3-3-----3-3-3-3--3-3-3-3--|-4-4-4-4-----4-4-4-4--4-4-4-4--------|


Part 6:                    x7
G|-------------------------|------|
D|-------------------------|-4~---|
A|-----------4---------4---|------|
E|-3--6--3-3---3-6-6-3-----|------|
          
Part 7:    x21                           x8
G|---------|--------------------|--------|----------------------------------|
D|---------|--------------------|--------|----------------------------------|
A|-----4---|--------------------|-----4--|-----4~--------------2/7~-7h9p7---|
E|-2-3--3--|--2~---0~--2~--5~---|-2-3--3-|--3~-----2~--2-2~--0--------------|
        
                              x3                       x3
G|--------------|-------------|------------------------|----|
D|--------------|-------------|------------------------|----|
A|--4~-2/4-4~---|-4-4-4--4~---|-4/5-5-5/7-7-7/5-5-5/4--|-4~-|
E|--------------|-------------|------------------------|----|

| /  slide up
| \  slide down
| h  hammer-on
| p  pull-off
| ~  vibrato
| +  harmonic
| x  Mute note
=============================================================================
Добавлено: 04.10.2013
Другие материалы по этой песне:
  • Аккорды и текст

Страница создана 04.10.2013
http://primanota.ru/stemage/teddys-bread-chords.htm
Привет, Гость.
Предлагаем пройти революционный курс по гитаре.
Подарок от PrimaNota.Ru, забирай!