PrimaNota.ru - самый крупный в мире бесплатный архив песенных текстов, аккордов, табулатур и нот


Stemage - Luna - таба, видео

Регистрация Запомнить меня
Войти через:  Facebook Google Twitter Vk Yandex Mail.ru

Stemage - Luna - таба, видео

Печатать
Просмотров: 94
this is mostly how I play it. I took a little time trying to figure everything 
out. hope you enjoy.
listen to the song for timing.


(E A D G B E) 

 3/4

|-------0-------0-|-------0-------0-|-------0-------0-----|-------10-(10)---|
|-----5-------7---|-----5-------7---|-----5-------7---7---|-----8-----------|
|---0-------0-----|---0-------0-----|---0-------0-------0-|---9-------------|
|-5-------7-------|-5-------7-------|-5-------7-----------|-----------------|
|-----------------|-----------------|---------------------|-----------------|
|-----------------|-----------------|---------------------|-0---------------|


 4/4
|-------0-------0-------10-----||--------0-------0-------10------||
|-----5-------7-------8----8---||o-----5-------7-------8----8---o||
|---0-------0-------9--------9-||----0-------0-------9--------9--||
|-5-------7--------------------||--5-------7---------------------||
|------------------------------||o------------------------------o||
|-----------------0------------||------------------0-------------||


|-------0-------0-------10-----|-------0-------0-------10-----|
|-----5-------7-------8----8---|-----5-------7-------8----8---|
|---0-------0-------9--------9-|---0-------0-------9--------9-|
|------------------------------|------------------------------|
|------------------------------|------------------------------|
|-3-------5-------0------------|-3-------5-------0------------|


                                 2/4
|-------------------------------|-----------|
|-----5-----5-----3-----3---3-2-|-(2)-------|
|---0-----0-----0-----0-----2-2-|-(2)-------|
|-5-----4-----3-----2-----2---2-|-(2)-------|
|-----------------------------0-|-(0)---0-2-|
|-------------------------------|-----------|


 4/4
|-------------------------|------------------------|
|-------------------------|-------3-----2-3-2------|
|-----0-----0-----0-----0-|-----0---0---2-2-2------|
|---0-----0-----0-----0---|---3-------3-2-2-2------|
|-3-----------------2-----|-1-----------0-0-0--0-2-|
|-------3-----2-----------|------------------------|


|-------------------------|---------------------|
|-------------------------|-------3-----2-3-2---|
|-----0-----0-----0-----0-|-----0---0---2-2-2---|
|---0-----0-----0-----0---|---3-------3-2-2-2---|
|-3-----------------2-----|-1-----------0-0-0---|
|-------3-----2-----------|---------------------|


|---------------------------------|
|---------------------------------|
|-4-6-4---------4-4-6-----6-6-6-6-|
|-5-7-5---------5-5-7-7-7-7-7-7-7-|
|-0-0-0-0-0-0-0-0-0-0-0-0-0-0-0-0-|
|---------------------------------|


|---------------------------------|---------------------------------|
|---------------------------------|---------------------------------|
|-----6-----6---------6-----6-----|-----6-----6---------6-----6-----|
|---7-----7---7-----7-----7---7---|---7-----7---7-----7-----7---7---|
|-5-----5-------5-5-----5-------5-|---------------------------------|
|---------------------------------|-7-----7-------7-7-----7-------7-|


|---------------------------------|-------------------------------|
|---------------------------------|-------------------------------|
|-----6-----6---------6-----6-----|-----0-----0-----0-----0-----0-|
|---7-----7---7-----7-----7---7---|---0-----0-----0-----0-----0---|
|---------------------------------|-------2-----3-----------------|
|-5-----5-------5-5-----5-------5-|-3-----------------2-----3-----|


|---------------------------------|---------------------------------|
|---------------------------------|---------------------------------|
|-6-6-6-6-6-6-6-6-6-6-6-6-6-6-6-6-|-6-6-6-6-6-6-6-6-6-6-6-6-6-6-6-6-|
|-7-7-7-7-7-7-7-7-7-7-7-7-7-7-7-7-|-7-7-7-7-7-7-7-7-7-7-7-7-7-7-7-7-|
|-5-5-5-5-5-5-5-5-5-5-5-5-5-5-5-5-|---------------------------------|
|---------------------------------|-7-7-7-7-7-7-7-7-7-7-7-7-7-7-7-7-|


 2/4                 4/4
                                                 3x
|-----------------||-----------------------------||
|-----------------||o---------------------------o||
|-----4-----4-----||------4-----4-----4-----4----||
|---5-----5---5---||----4-----4-----4-----4------||
|-3-----3-------3-||o-2-----------------0-----1-o||
|-----------------||--------0-----3--------------||


                               3/4
            
|-------------|---------------|--------|
|-------------|---------------|--------|
|-----4-----4-|-2-2-4-6-4-4-6-|-(6)----|
|---4-----4---|-2-2-5-7-5-5-7-|-(7)----|
|-2-----------|-0-0-0-0-0-0-0-|-(0)----|
|-------0-----|---------------|--------|


 4/4
|-------0-------0-------10-----||--------0-------0-------10------||
|-----5-------7-------8----8---||o-----5-------7-------8----8---o||
|---0-------0-------9--------9-||----0-------0-------9--------9--||
|-5-------7--------------------||--5-------7---------------------||
|------------------------------||o------------------------------o||
|-----------------0------------||------------------0-------------||


                                 2/4
|-------------------------------|--------|
|-----5-----5-----3-----3---3-2-|-(2)----|
|---0-----0-----0-----0-----2-2-|-(2)----|
|-5-----4-----3-----2-----2---2-|-(2)----|
|-----------------------------0-|-(0)----|
|-------------------------------|--------|


 4/4
|-------------------------|------------------------|
|-------------------------|-------3-----2-3-2------|
|-----0-----0-----0-----0-|-----0---0---2-2-2------|
|---0-----0-----0-----0---|---3-------3-2-2-2------|
|-3-----------------2-----|-1-----------0-0-0--0-2-|
|-------3-----2-----------|------------------------|


|-------------------------|---------------------|
|-------------------------|-------3-----2-3-2---|
|-----0-----0-----0-----0-|-----0---0---2-2-2---|
|---0-----0-----0-----0---|---3-------3-2-2-2---|
|-3-----------------2-----|-1-----------0-0-0---|
|-------3-----2-----------|---------------------|


|---------------------------------|
|---------------------------------|
|-4-6-4---------4-4-6-----6-6-6-6-|
|-5-7-5---------5-5-7-7-7-7-7-7-7-|
|-0-0-0-0-0-0-0-0-0-0-0-0-0-0-0-0-|
|---------------------------------|

this is when he sings "there is nothing more to say"

|------------------------------------|
|------------------------------------|
|-4-4-4-4-4-4-4-4-2-2--4--4--6-6-----|
|-5-5-5-5-5-5-5-5-2-2--5--5--7-7-----|
|-5-5-5-5-5-5-5-5-0-0--0--0--0-0-----|
|-3-3-3-3-3-3-3-3-------------------|

the ending is basically the first verse




Tablature Legend
----------------
 h   - hammer-on
 p   - pull-off
 b   - bend
 pb  - pre-bend
 r   - bend release (if no number after the r, then release immediately)
 /\  - slide into or out of (from/to "nowhere")
 s   - legato slide
 S   - shift slide
 - natural harmonic
[n]  - artificial harmonic
n(n) - tapped harmonic
 ~   - vibrato
 tr  - trill
 T   - tap
 TP  - trem. picking
 PM  - palm muting
\n/  - tremolo bar dip; n = amount to dip
 \n  - tremolo bar down
 n/  - tremolo bar up
/n\  - tremolo bar inverted dip
 =   - hold bend; also acts as connecting device for hammers/pulls
 <> - volume swell (louder/softer)
 x   - on rhythm slash represents muted slash
 o   - on rhythm slash represents single note slash

Misc Legend
-----------
 |  - bar
||  - double bar
||o - repeat start
o|| - repeat end
*|  - double bar (ending)
 :  - bar (freetime)
 $  - Segno
 &  - Coda
Tempo markers -  = BPM(8/16=s8/s16), where s8 = swing 8ths, s16 = swing 16ths

Добавлено: 30.06.2013
Вам также может быть интересно:
Другие материалы по этой песне:
  • Аккорды и текст

Страница создана 30.06.2013
http://primanota.ru/stemage/luna-chords.htm
Привет, Гость.
Предлагаем пройти революционный курс по гитаре.
Подарок от PrimaNota.Ru, забирай!