PrimaNota.ru - самый крупный в мире бесплатный архив песенных текстов, аккордов, табулатур и нот


Stemage - Btmntbamlol - таба, видео

Регистрация Запомнить меня
Войти через:  Facebook Google Twitter Vk Yandex Mail.ru

Stemage - Btmntbamlol - таба, видео

Печатать
Просмотров: 135
Song: BTMNTBAMLOL
Artist of song: Danimal Cannon, Stemage, kbart

*(If you open this as a file in notepad you'll have to change the font to Lucida Console 
Courier New)


BTMNTBAMLOL

This is my first tab so correct me if I'm wrong.

Description of scale from "Danimal93" who played guitar for the song.

"The whole middle song is mostly G minor pentatonic. Then there's weirdo middle section
mostly Chromatic and it switches to D Minor/Dorian with lots of chromatics and
for the entire end of the song."

It also includes A#/Bb Minor Blues Pentatonic for some parts, and for the intro
the TMNT theme, but I'm not sure what the scale is so I'll call it Scale X until otherwise.

Scales:

G minor Pentatonic           - G, A, B, B, E
A#/Bb Minor Blues Pentatonic - A#/Bb, C, C#/Db, D, F, G
D Minor/Dorian               - D, E, F, G, A, B, C
Scale X                      - D#/Eb, E, F, F#/Gb, G, G#/Ab, A#/Bb, B, C, C#/Db

Tuning: Drop D

The second bar is like one of those Hammer ons bending things
00:00 - 00:07								  (Scale X)
E|----------|---------------------------------------------|-----------------|
B|----------|---------------------------------------------|-----------------|
G|----------|---------------------------------------------|-----------------|
D|-0////10--|--10-13h-10p-13h-10p-13h-10p-13h-10p-13h-10p-|-0////10---------|
A|----------|---------------------------------------------|-0////10---------|
D|----------|---------------------------------------------|-0////10---------|
               fb-----------------------------------------------------------|
               (That's the bend slowly getting lower)

TNMT bit
00:07 - 00:16
  Guitar 1				                                   (Scale X)
E|-----------------------------|-----------------------------|
B|-----------------------------|-----------------------------|
G|-----------------------------|--16-18-16-18-16-18-16-16-18-|
D|--18-20-18-20-18-20-18-18-20-|-----------------------------|
A|-----------------------------|-----------------------------|
D|-----------------------------|-----------------------------|
 |                             |                             |
 |Guitar 2                     |                             |
 | C#/Db                       | E                           |
E|-----------------------------|-----------------------------|
B|-----------------------------|-----------------------------|
G|-----------------------------|-----------------------------|
D|-----------------------------|-----------------------------|
A|-4-4-4-4-4-4-4-4-4-4-4-4-4-4-|-7-7-7-7-7-7-7-7-7-7-7-7-7-7-|
D|-----------------------------|-----------------------------|
   * * * * * * * * * * * * * *   * * * * * * * * * * * * * *

  Guitar 1                    (Note: this bar is just as long as the others time wise.)
E|-----------------------------|------14-13----11----------------------------------|
B|--17-19-17-19-17-19-17-17-19-|-------------14----12-11-14------------------------|
G|-----------------------------|-------------------------------11---10-------------|
D|-----------------------------|-11------------------------------------------------|
A|-----------------------------|----------------------------------11---11-8-9-10---|
D|-----------------------------|---------------------------------------------------|
 |                             |                                                   |
 |Guitar 2                     |                                                   |
 | F#/Gb                       | E                                                 |
E|-----------------------------|---------------------------------------------------|
B|-----------------------------|---------------------------------------------------|
G|-----------------------------|---------------------------------------------------|
D|-----------------------------|---------------------------------------------------|
A|-9-9-9-9-9-9-9-9-9-9-9-9-9-9-|-4--4--4--4--4--4--4--4--4--4--4--4--4--4--4--4--4-|
D|-----------------------------|---------------------------------------------------|
   * * * * * * * * * * * * * *   *  *  *  *  *  *  *  *  *  *  *  *  *  *  *  *  *

00:16 - 00:24								  (Scale X)
  Guitar 1
E|-----------------------------|-----------------------------|
B|-----------------------------|-----------------------------|
G|-----------------------------|--16-18-16-18-16-18-16-16-18-|
D|--18-20-18-20-18-20-18-18-20-|-----------------------------|
A|-----------------------------|-----------------------------|
D|-----------------------------|-----------------------------|
 |                             |                             |
 |Guitar 2                     |                             |
 | C#/Db                       | E                           |
E|-----------------------------|-----------------------------|
B|-----------------------------|-----------------------------|
G|-----------------------------|-----------------------------|
D|-----------------------------|-----------------------------|
A|-4-4-4-4-4-4-4-4-4-4-4-4-4-4-|-7-7-7-7-7-7-7-7-7-7-7-7-7-7-|
D|-----------------------------|-----------------------------|
   * * * * * * * * * * * * * *   * * * * * * * * * * * * * *

  Guitar 1
E|-----------------------------|-----------------------------|
B|--17-19-17-19-17-19-17-17-19-|-----------------------------|
G|-----------------------------|-18-18-18-18-16-18--18-18-18-|
D|-----------------------------|-----------------------------|
A|-----------------------------|-----------------------------|
D|-----------------------------|-----------------------------|
 |                             |                             |
 |Guitar 2                     |                             |
 | F#/Gb                       | C#/Db       B  C#/Db        |
E|-----------------------------|-----------------------------|
B|-----------------------------|-----------------------------|
G|-----------------------------|-----------------------------|
D|-----------------------------|-----------------------------|
A|-9-9-9-9-9-9-9-9-9-9-9-9-9-9-|-4--4--4--4--2--4---4--4--4--|
D|-----------------------------|-----------------------------|
   * * * * * * * * * * * * * *

Following Bass Phase
Starts at 00:25
E|----------------------|
B|----------------------|
G|----------------------|
D|----------------------|
A|----------------------|
D|-3-5-3-5--8--3-5--0-3-|

I don't know the TABs for that verse or section of the song
But I know that section finishes on 2 large bends of the 13th fret on the E string

Next Section        (some bits faster than others)
00:51 - 01:05 + 01:31                                (A#/Bb Minor Blues Pentatonic)
E|------------------------------------|     x 4
B|------------------------------------|
G|-----------5-35353------------------|
D|-35-35-35---------5--35-35-35-------|
A|-------------------------------345--|
D|------------------------------------|
             fb

01:05
E|--------------------------------------|
B|--------------------------------------|
G|---------3---3---3-5-6-5-3------------|
D|-3-5-3-5---5---5-----------5-3--------|
A|-------------------------------5-3----|
D|-----------------------------------8--|
                                     w
(That riff is followed by a very simular riff)

In Between the riff at 01:18 and 01:31, there is this awesome harmony bit that is in D 
and
is also played at 02:12, but it isn't in a harmony

After the harmony bit, this riff (which is simular to the riff in 00:51 - 01:05) shows up

01:31                                                 (A#/Bb Minor Blues Pentatonic)
E|------------------------------------|--------------------------------------| x 2-|
B|------------------------------------|--------------------------------------------|
G|----------------------3--3-5h3r5h3p-|----------------------3--353-5h3p5h3p-------|
D|-353--------3--3-5--5---------------|-353--------3--3-5--5-----------------------|
A|-----3-5--5-------------------------|-----3-5--5---------------------------------|
D|------------------------------------|--------------------------------------------|
                           fb------>                              fb---------------|

After some more skilled guitar this rhythm part comes in
Starts at 01:45
E|----------------|------------------------------------|
B|----------------|------------------------------------|
G|----------------|------------------------------------|
D|-5----3--3--3-5-|--3--3--3-5---3--3--3-5---------8-1-|
A|-5----3--3--3-5-|--3--3--3-5---3--3--3-5---------8-1-|
D|-5----3--3--3-5-|--3333333-5---3333333-5---3333338-1-|

E|-----------------------------------------| x 2
B|-----------------------------------------|
G|-----------------------------------------|
D|-3-5---3--3--3-5---3--3--3-5---------8-1-|
A|-3-5---3--3--3-5---3--3--3-5---------8-1-|
D|-3-5---3--3--3-5---3--3--3-5---------8-1-|

E|------------------------------------| x 2
B|------------------------------------|
G|------------------------------------|
D|--------3-5---------3-5---------8-1-|
A|--------3-5---------3-5---------8-1-|
D|--3333333-5---3333333-5---3333338-1-|
    ******      ******      ******
Ends at 02:12
A lot of the rhythm works around these chords, and notes and simular notes featured in
A#/Bb Minor Blues Pentatonic obviously in different position along the neck and in chords.

02:12 - 2:31
After the rhythm part there is this a variation of the awesome harmony bit in D 
that is
played in between 01:05 and 01:13, except variation isn't a harmony at the start. It
Includes pretty mad finger runs.

02:31 - 02:40
During this Period there are some syncipated two hand tapping part finishing off and
the harmony during 02:12 - 2:31.

02:40 - 03:05
during that time there is some drum thing that goes on, and some rhythm guitar comes in
shown below) two seconds after.

With this bit it's gonna sound gay unless you time it out properly
02:42
E|--------------------|--------------------|--------------------|
B|--------------------|--------------------|--------------------|
G|--------------------|--------------------|--------------------|
D|-5---------5--------|-5---------5--------|-5---------5--------|
A|-5---------5--------|-5---------5--------|-5---------5--------|
D|-5---555---5---555--|-5---555---5---555--|-5---555---5---555--|
       ***       ***        ***       ***        ***       ***

E|--------------------|--------------------|-------------|
B|--------------------|--------------------|-------------|
G|--------------------|--------------------|-------------|
D|-3---------5--------|-5---------5--------|-5--5--5--5--|
A|-3---------5--------|-5---------5--------|-5--5--5--5--|
D|-3---333---5---555--|-5---555---5---555--|-5--5--5--5--|
       ***       ***        ***       ***

E|--------------------|--------------------|--------------------| x 2 Repeat this
B|--------------------|--------------------|--------------------|     last bar
G|--------------------|--------------------|--------------------|     twice
D|-5---------5--------|-5---------5--------|-5---------5--------|
A|-5---------5--------|-5---------5--------|-5---------5--------|
D|-5---555---5---555--|-5---555---5---555--|-5---555---5---555--|
       ***       ***        ***       ***        ***       ***

This all I've figured out so far

Note: Most of these phases / riffs are repeated though out the song but vary.

This probably isn't the most detailed TAB but it's a start, please point out any
because this is my first TAB, and I would love to know how to play it.

I got a bit of help this Tab from danimal93 who I quoted before gave me information on
of the scale and all, and also gave me tabs for a riff I couldn't figure out. My guitar
and I figured out some of the rhythm bits, but I figured out most of the rhythm shown in 
TABs.


Key

h        Hammer on
p        Pull off
*        Mute
fb       Full bend
Bh       Bend up and down until the note is released or almost released
W        Whammy bend down
fb---->  One of those Hammer ons bending things
Добавлено: 28.04.2012
Другие материалы по этой песне:
  • Аккорды и текст

Страница создана 28.04.2012
http://primanota.ru/stemage/btmntbamlol-chords.htm
Привет, Гость.
Предлагаем пройти революционный курс по гитаре.
Подарок от PrimaNota.Ru, забирай!