PrimaNota.ru - самый крупный в мире бесплатный архив песенных текстов, аккордов, табулатур и нот


Stellar Kart - Gone Fishin - текст песни, таба, видео

Регистрация Запомнить меня
Войти через:  Facebook Google Twitter Vk Yandex Mail.ru

Stellar Kart - Gone Fishin - текст песни, таба, видео

Печатать
Просмотров: 132
       Title: Gone Fishin'
       Artist: Stellar Kart
       Tabbed by: Chris


     Intro Riff 1                   Gtr 1    (Comes in After Bass Intro)
 E-----------------------------------------------------------------------------|
 B-----------------------------------------------------------------------------|
 G-10--10--10--10-10--10-10--10-10-10-10--9---9---9---7--7---7--7---7--7--7--7-|
 D--x---x---x---x--x---x--x---x--x--x--x--x---x---x---x--x---x--x---x--x--x--x-|
 A--8---8---8---8--8---8--8---8--8--8--8--7---7---7---5--5---5--5---5--5--5--5-|
 D-----------------------------------------------------------------------------|

                         Gtr 2
 E------------------------------------------------------------------------------|
 B------------------------------------------------------------------------------|
 G-10--10--10--10-10--10-10--10-10-10-10--9---9---9---7--7---7--7---7--7--7--7--|
 D-10--10--10--10-10--10-10--10-10-10-10--9---9---9---7--7---7--7---7--7--7--7--|
 A--8---8---8---8--8---8--8---8--8--8--8--7---7---7---5--5---5--5---5--5--5--5--|
 D------------------------------------------------------------------------------|
                                   X2

                         Intro Riff 2    Gtr 1 and 2
 E-----------------------------------------------------------------------------|
 B-----------------------------------------------------------------------------|
 G-5---5---5--5---5--5---5---5--5----------------------------------------------|
 D-5---5---5--5---5--5---5---5--5-----------------------------X2---------------|
 A-3---3---3--3---3--3---3---3--3----------------------------------------------|
 D-----------------------------------------------------------------------------|

 E-----------------------------------------------------------------------------|
 B-----------------------------------------------------------------------------|
 G-5---5-----------------------------------------------------------------------|
 D-5---5---------Then Pause For a few seconds----------------------------------|
 A-3---3-----------------------------------------------------------------------|
 D-----------------------------------------------------------------------------|

                     Verse Riff 1
 E-----------------------------------------------------------------------------|
 B-----------------------------------------------------------------------------|
 G-5---5-----------------5---5---7/5---4/5-------------------------------------|
 D-5---5---x--x--3---3---5---5---x/x---x/x-------------------------------------|
 A-3---3---x--x--3---3---3---3---5/3---2/3-------------------------------------|
 D---------x--x--3---3---------------------------------------------------------|

                           Verse Riff 2
 E-----------------------------------------------------------------------------|
 B-----------------------------------------------------------------------------|
 G-5---5-----------------5---5---7---7---7---7--7------------------------------|
 D-5---5---x--x--3---3---5---5---x---x---x---x--x------------------------------|
 A-3---3---x--x--3---3---3---3---5---5---5---5--5------------------------------|
 D---------x--x--3---3---------------------------------------------------------|

                      Verse Riff 3
 E-----------------------------------------------------------------------------|
 B-----------------------------------------------------------------------------|
 G-5---5---5---5--5---5--5---5--5--5--5---5---5---5---5--5---5--5---5--5--5--5-|
 D-x---x---x---x--x---x--x---x--x--x--x---x---x---x---x--x---x--x---x--x--x--x-|
 A-3---3---3---3--3---3--3---3--3--3--3---3---3---3---3--3---3--3---3--3--3--3-|
 D-----------------------------------------------------------------------------|

      Verse Riff 4                          Gtr 1
 E-----------------------------------------------------------------------------|
 B-----------------------------------------------------------------------------|
 G-9---9---9---7--7---7--7---7--7--7--7--10--10--10--10-10--10-10--10-10-10-10-|
 D-x---x---x---x--x---x--x---x--x--x--x---x---x---x---x--x---x--x---x--x--x--x-|
 A-7---7---7---5--5---5--5---5--5--5--5---8---8---8---8--8---8--8---8--8--8--8-|
 D-----------------------------------------------------------------------------|

                                Gtr 2
 E-----------------------------------------------------------------------------|
 B-----------------------------------------------------------------------------|
 G-9---9---9---7--7---7--7---7--7--7--7--10--10--10--10-10--10-10--10-10-10-10-|
 D-9---9---9---7--7---7--7---7--7--7--7--10--10--10--10-10--10-10--10-10-10-10-|
 A-7---7---7---5--5---5--5---5--5--5--5---8---8---8---8--8---8--8---8--8--8--8-|
 D-----------------------------------------------------------------------------|

                                Gtr 1
 E-----------------------------------------------------------------------------|
 B-----------------------------------------------------------------------------|
 G-9---9---9---9--9---9--9---9--9--9--9----------------------------------------|
 D-x---x---x---x--x---x--x---x--x--x--x----------------------------------------|
 A-7---7---7---5--5---5--5---5--5--5--5----------------------------------------|
 D-----------------------------------------------------------------------------|

                           Then Intro Riff 2

                          Then Verse Riff 1

                   Verse Riff 5
 E
 B-----------------------------------------------------------------------------|
 G-5---5------------------7----------------------------------------------------|
 D-5---5---x--x---3---3---x----------------Ring Out----------------------------|
 A-3---3---x--x---3---3---5----------------------------------------------------|
 D---------x--x---3---3--------------------------------------------------------|

                           Pre-Chorus  Riff
 E-----------------------------------------------------------------------------|
 B-----------------------------------------------------------------------------|
 G-----------------------------------------------------------------------------|
 D-----------------------------------------------------------------------------|
 A-3-3-3-3-3-3-3-3-----------------3-3-3-3-3-3-3-3-----------------------------|
 D-----------------3-3-3-3-3-3-3-3-----------------5-5-5-5-5-5-5-5-------------|
 PM............................................................................

 E-----------------------------------------------------------------------------|
 B-----------------------------------------------------------------------------|
 G-----------------------------------------------------------------------------|
 D-------------------------------------------------5---------------------------|
 A-3-3-3-3-3-3-3-3-----------------3-3-3-3-3-3-3-3-5---------------------------|
 D-----------------3-3-3-3-3-3-3-3-----------------5---------------------------|
 PM............................................................................


          Chorus                  Gtr 1
 E-----------------------------------------------------------------------------|
 B-----------------------------------------------------------------------------|
 G-5---5---5---5-10--10-10---9--9--9--9---9---9---9---9-10--10-10---9--9--9--9-|
 D-x---x---x---x--x---x--x---x--x--x--x---x---x---x---x--x---x--x---x--x--x--x-|
 A-3---3---3---3--8---8--8---7--7--7--7---7---7---7---7--8---8--8---7--7--7--7-|
 D-----------------------------------------------------------------------------|

                                Gtr 2
 E-----------------------------------------------------------------------------|
 B-----------------------------------------------------------------------------|
 G-5---5---5---5--5---5--5---5--5--5--5----------------------------5--5--5--5--|
 D-5---5---5---5--5---5--5---5--5--5--5---7---7---7--3--3---3--3---3--3--3--3--|
 A-3---3---3---3--3---3--3---3--3--3--3---7---7---7--3--3---3--3---3--3--3--3--|
 D----------------------------------------7---7---7--3--3---3--3---3--3--3--3--|
                                                              X4

                            Bridge
 E-----------------------------------------------------------------------------|
 B-----------------------------------------------------------------------------|
 G-----------------------------------------------------------------------------|
 D-------5--------5--------3--------3-------2h3--------2--------3--------3-----|
 A-3--3-----3--3-----3--3-----3--3----0--0-------0--0--------------------------|
 D--------------------------------------------------------3--3-----3--3--------|
  PM...     ....     ....     ....    ....       ....     ....     ....

           Bridge
 E-----------------------------------------------------------------------------|
 B-----------------------------------------------------------------------------|
 G-----------------------------------------------------------------------------|
 D-------5--------5--------3---------3-------2h3--------2--3-------------------|
 A-3--3-----3--3-----3--3------3--3-----0--0------0--0-----3---Ring Out--------|
 D---------------------------------------------------------3-------------------|
 PM....     ....     ....      ....     ....      ....

                             Then Chorus X4

                        Bridge 2-Guitar 1 plays Bridge while guitar 2 plays
                          Chorus

 E-----------------------------------------------------------------------------|
 B-----------------------------------------------------------------------------|
 G-----------------------------------------------------------------------------|
 D-----2---3---5---3---2-------2---3---5---3---2-------------------------------|
 A-3-----------------------3---------------------------------------------------|
 D-----------------------------------------------------------------------------|

                          Then Continue to play Bridge 2
           Then This
 E-----------------------------------------------------------------------------|
 B-----------------------------------------------------------------------------|
 G-----------------------------------------------------------------------------|
 D-----2---3---5---3---2-------2---3---5---3---2---3---------------------------|
 A-3-----------------------2-----------------------3-----------------Ring Out--|
 D-------------------------------------------------3---------------------------|

  Tadah! I hope This tab helped you. Please tell me if it did. Feel free to
  leave comments, questions, corrections etc. Please rate this tab! My email
  is BballChris0039@aol.com. God Bless!
Добавлено: 16.04.2012
Другие материалы по этой песне:
  • Аккорды и текст

Страница создана 22.03.2012
http://primanota.ru/stellar-kart/gone-fishin-chords.htm
Привет, Гость.
Предлагаем пройти революционный курс по гитаре.
Подарок от PrimaNota.Ru, забирай!