PrimaNota.ru - самый крупный в мире бесплатный архив песенных текстов, аккордов, табулатур и нот


Stellar Kart - Come Back Home - текст песни, таба, видео

Регистрация Запомнить меня
Войти через:  Facebook Google Twitter Vk Yandex Mail.ru

Stellar Kart - Come Back Home - текст песни, таба, видео

Печатать
Просмотров: 150
Уроки эстрадного вокала в Санкт-Петербурге
intro
e------------------------------------------------------|
B------------------------------------------------------|
G-12-12-12--10-10-10--12-12-12--10-10-10--12/10--------|
D--x--x--x---x--x--x---x--x--x---x--x--x---x--x--------|
A-10-10-10---8--8--8---10-10-10--8--8--8--10/-8--------|
E------------------------------------------------------|

cont.
--------------------------------------------------------------------------|
--------------------------------------------------------------------------|
-12-12-12--10-10-10--12-12-12--10-10-10--9-9-9-9-9------------------------|
--x--x--x---x--x--x---x--x--x---x--x--x--x-x-x-x-x------------------------|
-10-10-10---8--8--8--10-10-10---8--8--8--7-7-7-7-7------------------------|
--------------------------------------------------------------------------|

cont.
------------------------------------------------------|
------------------------------------------------------|
-12-12-12--10-10-10--12-12-12--10-10-10--12/10--------|
--x--x--x---x--x--x---x--x--x---x--x--x---x--x--------|
-10-10-10---8--8--8---10-10-10--8--8--8--10/-8--------|
------------------------------------------------------|

cont.
---------------------------------------------------------|
---------------------------------------------------------|
-8-8--10-10-10--11-11--12-12-12--13/14-------------------|
-x-x---x--x--x---x--x---x--x--x---x--x-----(x2)----------|
-6-6---8--8--8---9--9--10-10-10--11/12-------------------|
---------------------------------------------------------|

verse
e-----------------------------------|--------------------------------------|
B-----------------------------------|---------9----------------------------|
G-----------------------------------|------7-----7--7----------------------|
D-99999999------------66666666------|--99---9-----9-----verse part 2-------|
A-77777777--99999999--44444444--7---|--------------------------------------|
E-----------77777777------------5---|--------------------------------------|

chorus
e-------------------------------------------------------|
B-------------------------------------------------------|
G-99999999--66666666------------------------------------|
D-99999999--66666666--77777777--99999999----x2----------|
A-77777777--44444444--77777777--99999999----------------|
E---------------------55555555--77777777----------------|

verse
chorus

interlude gtr.1
e---------------------------------------------------------|
B-6h7-6---6h7-6---6-7--6h7-6----6h7-----------------------|
G-------7-------7-------------7---------------------------|
D---------------------------------------------------------|
A---------------------------------------------------------|
E---------------------------------------------------------|

gtr.2
e-----------------------------------------------------------------------|
B-----------------------------------------------------------------------|
G-888/10-10/11----------------------------------------------------------|
D-xxx--x--x--x----------------------------------------------------------|
A-666/-8--8/-9----------------------------------------------------------|
E-----------------------------------------------------------------------|

cont. gtr.1
e---------------------------------------------------------|
B-6h7-6---6h7-6---6-7-------------------------------------|
G-------7-------7-----------------------------------------|
D---------------------------------------------------------|
A---------------------------------------------------------|
E---------------------------------------------------------|

gtr.2
e----------------------------------------------------------------------|
B----------------------------------------------------------------------|
G-88--10-10-10--11-11--12-12-12--13/14---------------------------------|
D-xx---x--x--x---x--x---x--x--x---x--x---------------------------------|
A-66---8--8--8---9--9--10-10-10--11/12---------------------------------|
E----------------------------------------------------------------------|

cont. gtr.1
e---------------------------------------------------------|
B-6h7-6---6h7-6---6-7--6h7-6----6h7-----------------------|
G-------7-------7-------------7---------------------------|
D---------------------------------------------------------|
A---------------------------------------------------------|
E---------------------------------------------------------|

gtr.2
e-------------------------------------------------------------------|
B-------------------------------------------------------------------|
G-888/10-10/11------------------------------------------------------|
D-xxx--x--x--x------------------------------------------------------|
A-666/-8--8/-9------------------------------------------------------|
E-------------------------------------------------------------------|

cont.
e-----------------------------------------------------------------------|
B-----------------------------------------------------------------------|
G-12-12-12--10-10-10--999-888--6/7--------------------------------------|
D--x--x--x---x--x--x--xxx-xxx--x-x--------------------------------------|
A-10-10-10---8--8--8--777-666--4/5--------------------------------------|
E-----------------------------------------------------------------------|

cont.
e---------------------------------------------------------------------|
B---------------------------------------------------------------------|
G-88--10-10-10--11-11--12-12-12--13/14--------------------------------|
D-xx---x--x--x---x--x---x--x--x---x--x--------------------------------|
A-66---8--8--8---9--9--10-10-10--11/12--------------------------------|
E---------------------------------------------------------------------|

repeat chorus 'til fade
sorry kung may marinig kayong mali, acoustic guitar lang kasi gamit ko
gud luck!!!
Добавлено: 28.06.2012
Другие материалы по этой песне:
  • Аккорды и текст

Страница создана 25.05.2012
http://primanota.ru/stellar-kart/come-back-home-chords.htm
Привет, Гость.
Предлагаем пройти революционный курс по гитаре.
Подарок от PrimaNota.Ru, забирай!