PrimaNota.ru - самый крупный в мире бесплатный архив песенных текстов, аккордов, табулатур и нот


Stellar Kart - Automatic - таба, видео

Регистрация Запомнить меня
Войти через:  Facebook Google Twitter Vk Yandex Mail.ru

Stellar Kart - Automatic - таба, видео

Печатать
Просмотров: 89
This is a really fun song to play. Please rate and comment and enjoy :)

Intro:
--333-222-333-222-33-22-333-222-333-222-33-22-------|
--333-333-333-333-33-33-333-222-333-222-33-22-------|
----------------------------------------------------|
----------------------------------------------------|
----------------------------------------------------|
-----------------------------------------------10/--|

Intro: {Main Riff}
--------------------------------------------------------|
--------------------------------------------------------|
--7-----------7----------------7-----------7------------|
--7-55-44-55--7-55-44-5-xxxxx--7-55-44-55--7-55-44-55~--|
--5-55-44-55--5-55-44-5-xxxxx--5-55-44-55--5-55-44-55~--|
----33-22-33----33-22-3-xxxxx----33-22-33----33-22-33~--|

Verse 1:
-----------------|
-----------------|
-----7-----------| (x2)
--7~-7-55-44-55--|
--7~-5-55-44-55--|
--5~---33-22-33--|

Pre-Chorus:
---------------|
---------------|
--4-2---22222--|
--5-2-2-22222--|
--5-4-2-00000--|
--3-2-0--------|

Chorus:
--------------------------------------------------|
--77777777-88888888-------------------------------|
--77777777-77777777-------------------------------|
--77777777-99999999-55555555-99-77-55-44-55-77-7--|
--55555555-77777777-55555555-99-77-55-44-55-77-7--|
--------------------33333333-77-55-33-22-33-55-5--|

Verse 2:
----------------------|
----------------------|
----------7-----------| (x2)
--7~-5/7--7-55-44-55--|
--7~-5/7--5-55-44-55--|
--5~-3/5----33-22-33--|

Then:
Pre-Chorus
Chorus

Pre-bridge: 
-------------|
-------------|
--777-777-7--|
--777-777-7--|
--555-777-9--|
-------------|
      ↑   ↑
    Index Index Bar
     Bar  + Ring Finger

Bridge:
--2~--2~--2~--2~-2---------------------------------------------------------|
--3~--3~--3~--3~---3-------------------------------------------------------|
--2~--3~--4~--5~-----5---7777777777777777----------------------------222222|
--0~--0~--0~--0~-------0-7777777777777777-55555555-44444444-22222222-222222|
-------------------------5555555555555555-55555555-44444444-22222222-000000|
------------------------------------------33333333-22222222-00000000-------|

Bridge: (Con…)
-------------------------333-222-333-222-33-22-333-222-333-222-33-22--|
-------------------------333-333-333-333-33-33-333-222-333-222-33-22--|
--7-----------7-------------------------------------------------------|
--7-55-44-55--7-55-44-55----------------------------------------------|
--5-55-44-55--5-55-44-55----------------------------------------------|
----33-22-33----33-22-33----------------------------------------------|

Bridge: (Con…)
--333-222-333-222-33-22-333-222-333-222-33-22--|
--333-333-333-333-33-33-333-222-333-222-33-22--|
-----------------------------------------------|
-----------------------------------------------|
-----------------------------------------------|
-----------------------------------------------|

Then:
Chorus
Ending

Ending Chord: (Use index bar)
--2~--|
--2~--|
--2~--|
--0~--|
------|
------|
Добавлено: 10.09.2013
Другие материалы по этой песне:
  • Аккорды и текст

Страница создана 23.07.2013
http://primanota.ru/stellar-kart/automatic-chords.htm
Привет, Гость.
Предлагаем пройти революционный курс по гитаре.
Подарок от PrimaNota.Ru, забирай!