PrimaNota.ru - самый крупный в мире бесплатный архив песенных текстов, аккордов, табулатур и нот


Stefano Langone - Yes To Love - аккорды и текст, видео

Регистрация Запомнить меня
Войти через:  Facebook Google Twitter Vk Yandex Mail.ru

Stefano Langone - Yes To Love - аккорды и текст, видео

Печатать
Просмотров: 73
Yes To Love
Stefano Langone
Intro:

         C          C6          G
 E-------x----------x-----------x--------|
 A-------x----------x-----------x--------|
 D-------x----------x-----------x--------|
 G-------0----------2-----------0--------|
 B-------1----------1-----------0--------|
 e-------3----------3-----------3--------|


Verse:

       C(sus4)      C           Am           G
 E-------x----------x-----------x------------3-----------|
 A-------3----------3-----------0------------2-----------|
 D-------3----------2-----------2------------0-----------|
 G-------0----------0-----------2------------0-----------|
 B-------1----------1-----------1------------3-----------|
 e-------3----------3-----------0------------3-----------|


Chorus:

         C6         C           Am            G
 E-------x----------x-----------x-------------3----------|
 A-------3----------3-----------0-------------2----------|
 D-------x----------2-----------2-------------0----------|
 G-------2----------0-----------2-------------0----------|
 B-------1----------1-----------1-------------3----------|
 e-------3----------3-----------0-------------3----------|

Please be gentle, this is my first tab. It seems like an easy song, but it was a little 
tricky placing the non-harmonic tones just right.

Stefano Langone's official website: Stefanomusic.com
Добавлено: 10.11.2013
Другие материалы по этой песне:
  • Аккорды и текст

Страница создана 10.11.2013
http://primanota.ru/stefano-langone/yes-to-love-chords.htm
Привет, Гость.
Предлагаем пройти революционный курс по гитаре.
Подарок от PrimaNota.Ru, забирай!