PrimaNota.ru - самый крупный в мире бесплатный архив песенных текстов, аккордов, табулатур и нот


Stef Burns - Interlude - таба, видео

Регистрация Запомнить меня
Войти через:  Facebook Google Twitter Vk Yandex Mail.ru

Stef Burns - Interlude - таба, видео

Печатать
Просмотров: 107
STEF BURNS – INTERLUDE 2003, SAN SIRO
as tabbed by Giacomo Pasquali
www.myspace.com/giacomopasquali


 s     slide

 h     hammer-on

 p     pull-off

 b     bending

 *     harmonic


I DON'T NOTE NO ONE VIBRATO. FIND BY YOURSELF

e|--0---------------3------3-2-----2-0-----0-2-------------------0------2-------|
B|--2--------2------3--3-------3-------3-------3---3-------------2--------------|
G|--0--0---0---0-0--0----0-------0-------0-------0---------------0----0---0-----|
D|--4----4----------0--------------------------------------------4----------4---|
A|--2---------------3--------------------------------------------2--------------|
E|--0-------------------------------------------------2b3b2--0---0--0-----------|

                                x2

e|-------2-----------------------0-0-------------------------------0— 12*------|
B|-3-----------3-----3-----------0---0-----------------------------2------12*--|
G|---0-----0-----0-----0---------4-----4---------------------------0-----------|
D|-----4-----4-----4-------------4-------4------0---2-0------------4-----------|
A|-------------------------------2----------0-2---0----------------2-----------|
E|-------------------------------------------------------2b3b2--0--0-----------|

	 x1

e|--------------0-----0----------------0---------0------------0--------0-------|
B|----------------3-----3----------------0---------0------------0--------0-----|
G|-7*-------4-------0-----0----------5-----5---5----------4---------4----------|
D|-7*---------4--------------------5---------5----------4---4-----4------------|
A|----0-0h2------------------2-2s3--------------------2------------------------|
E|-----------------------------------------------------------------------------|

e|-----------0------3-3-3-3-3-3-3------------------3------------5----5-----6---|
B|-------------0----3-3-3-3-3-3-3----------3---3-5---5----5-5s7---7--7—7s8---8-|
G|-------5-------5--0-0-0-0-0-0-0--0-2-2s4---4---5------5----------------------|
D|---------5--------0-2-0-2-0-2-0----------------------------------------------|
A|-2-2s3------------2-3-2-3-2-3-2----------------------------------------------|
E|------------------3---3---3---3----------------------------------------------|

	             find rhythm
                     by yourself

e|---7---7-8-10-7---------8--------------5--------3----------------------------|
B|----------------8----------------0-7--------------3----3---------------------|
G|-7---7------------7-7s9---9s0--------7---7s0--------0--0---------------------|
D|-------------------------------------------------------0---------------7-7s9-|
A|-------------------------------7--------------1--------------0s5-5-7s9-------|
E|-----------------------------------------------------------------------------|


e|--------------------7-10-----------------------------------------------------|
B|------------------8------8----8p7--7-7---------------------------------------|
G|-7—7h9--7-----7------------7--7----7-7—-7h9p7-----7-7s9-9-9s7------7-----7---|
D|----7---7-7h9---9-----------------------7-----9---7-7s9-9-9s7----7-7---7-7---|
A|-----------------------------------------------------------------7-7h9-------|
E|-----------------------------------------------------------------------------|

	   x2

e|---------------------------10--10-10--0-0------------------------5-7-8-8s10--|
B|-----------------------8-------8--8---3------------------------5-------------|
G|-----7-7h9-7-----7-------7-----7--7---2---2--------------7-4-5---------------|
D|-7h9-7-7---7-7h9---7s9---------9--9---0--------------5-7---------------------|
A|--------------------------------------0--------2-3-5-------------------------|
E|--------------------------------------2------0-------------------------------|


e|-7---------------------------------------------------------------------------|
B|---10p8p7-5p3--------------------------------------8s10-12-10p8p7------------|
G|--------------4-2p0----------------------------7s9---------------------------|
D|--------------------4-2p0----------------7-7s9-------------------------------|
A|--------------------------2--2s5-5s7-7s9-------------------------------------|
E|-----------------------------------------------------------------------------|


e|-8--------8------3--3--2--3--6--7---8--10--15--------------------------------|
B|---8--------8----3--1--3--3--8--8---8--10--15--------------------------------|
G|-----9--------8-------------------8s9--11--12--------------------------------|
D|-------10--------------------------------------------------------------------|
A|-----------------------------------------------------------------------------|
E|-----------------------------------------------------------------------------|
	              find rhythm
                      by yourself


STEF BURNS OFFICIAL WEBSITE
http://www.stefburns.com/
Добавлено: 13.06.2012
Вам также может быть интересно:
Другие материалы по этой песне:
  • Аккорды и текст

Страница создана 13.06.2012
http://primanota.ru/stef-burns/interlude-chords.htm
Привет, Гость.
Предлагаем пройти революционный курс по гитаре.
Подарок от PrimaNota.Ru, забирай!