PrimaNota.ru - самый крупный в мире бесплатный архив песенных текстов, аккордов, табулатур и нот


Stef Burns - Echo Lake - таба, видео

Регистрация Запомнить меня
Войти через:  Facebook Google Twitter Vk Yandex Mail.ru

Stef Burns - Echo Lake - таба, видео

Печатать
Просмотров: 137
Уроки эстрадного вокала в Санкт-Петербурге
Stef Burns - Echo Lake
as tabbed by Giacomo Pasquali
www.giacomopasquali.it
www.myspace.com/giacomopasquali
Video Link
http://www.youtube.com/watch?v=N8EaesurxCs

s     slide

h     hammer-on

p     pull-off

b     bending

r     release (sr  slow release)

*     harmonic

t    tapping


e|-----------------------------------------------------------------------|
B|-------5-6-6s8-----------5-6-6s8-8-8s10s8------------------------------|
G|-(5s7)---------5-5s2-5s7------------------7s9s7-7p5s4-5-7-5s7-5-7s9s7--|
D|-----------------------------------------------------------------------|
A|-----------------------------------------------------------------------|
E|-----------------------------------------------------------------------|

e|-----------------------------------------------------------------------|
B|-------5-6-6s8-------5-6-6s8-8s10s8------------------------------------|
G|-(5s7)---------5-5s2----------------5-7b9r7-5-7b9r7-5---7s9s7p5----4---|
D|---------------------------------------------------- (7)--------7--5---|
A|-------------------------------------------------------------------5---|
E|-----------------------------------------------------------------------|

e|-----------------------------------------------------------------------|
B|-------5s6-5---5s6-5h6p5---------------5s6-5---5s6-5h6p5---------------|
G|-4-5-7-------7-----------7-7-7-5-4-5-7-------7-----------7-5-7b9b7-----|
D|-----------------------------------------------------------------------|
A|-----------------------------------------------------------------------|
E|-----------------------------------------------------------------------|

e|-------------------11---10-8-------------------------------------------|
B|------8-9-9s11---------------11-11-11p9p8h9h11---11b13r11-11s9s8-------|
G|-8s10----------8-8----8------------------------8-----------------------|
D|-----------------------------------------------------------------------|
A|-----------------------------------------------------------------------|
E|-----------------------------------------------------------------------|

e|---11---10-8----10------8-10-10h11-11-10-11-8-8p6-6s4-4s6----------11--|
B|-------------11----9s11----------------------------------------8-9-----|
G|-8----8---------------------------------------------------8s10---------|
D|-----------------------------------------------------------------------|
A|-----------------------------------------------------------------------|
E|-----------------------------------------------------------------------|

e|-11-10-10h11-------------------------------------------------10--------|
B|--------------------------------------------9-------10-12-13----12-13--|
G|----------------------------9-------9-10-12---10-12--------------------|
D|--------------------9-10-12---10-12------------------------------------|
A|--------------10-12----------------------------------------------------|
E|-----------------------------------------------------------------------|

e|-10-12p10-13p10—13s15------------------12-13-13s15t17p15---------------|
B|----------------------13-13(h15)-12s13-------------------13-15b17-15---|
G|-----------------------------------------------------------------------|
D|-----------------------------------------------------------------------|
A|-----------------------------------------------------------------------|
E|-----------------------------------------------------------------------|

e|----------------------------------------12-13-15t20p15p13p12-----------|
B|-15p13p12-13-15-13s15-13-15b17r15-12s13----------------------13-12s13--|
G|-----------------------------------------------------------------------|
D|-----------------------------------------------------------------------|
A|-----------------------------------------------------------------------|
E|-----------------------------------------------------------------------|

e|-12-13-15h17p15-----------------13-14-15-12----------------------------|
B|----------------15b17sr-15b17sr-------------13-15----13-15(b16)--------|
G|--------------------------------------------------14------------13s14--|
D|-----------------------------------------------------------------------|
A|-----------------------------------------------------------------------|
E|-----------------------------------------------------------------------|

e|-------------------------------13-12----12s13-12h13p12-----------------|
B|-13----15b17r15p13-12-12-13-15-------15----------------15-15-15-13-12--|
G|----14-----------------------------------------------------------------|
D|-----------------------------------------------------------------------|
A|-----------------------------------------------------------------------|
E|-----------------------------------------------------------------------|

e|-------12s13-15-11s12----13-15-------15---------------------------15-16-|
B|-13-15----------------15-------15b17----17r15-13-15b17r15-(15s16)-------|
G|------------------------------------------------------------------------|
D|------------------------------------------------------------------------|
A|------------------------------------------------------------------------|
E|------------------------------------------------------------------------|

e|-18--------------------------------------------------------------------|
B|----16-15s16-15-16----15-----------------------------------------------|
G|-------------------17----15-17-13-15-12--------------------------------|
D|----------------------------------------13--------------13-13-15b17-13-|
A|-------------------------------------------13--13-13h15----------------|
E|-----------------------------------------------------------------------|


e|-------------------11-10-----------------------------------------------|
B|----------------11-------13-11-13s15-------13-15-15s16-18-15-16--------|
G|----------11s12----------------------13s15----------------------17-17--|
D|-----------------------------------------------------------------------|
A|-13--------------------------------------------------------------------|
E|----16-15--------------------------------------------------------------|

e|------------------------------------------------------------------------|
B|-16h18-18s16-15-15h16-----------------16-16-15-15s16-18b20-11b13r11p9s8-|
G|------------------------------------------------------------------------|
D|--------------------------15-17-17s18-----------------------------------|
A|-----------------------15-----------------------------------------------|
E|------------------------------------------------------------------------|

e|-----------------------------------------------------------------------|
B|----9b11r9p8-----8b9r8-------------------------------------------------|
G|-10----------10--------10p8s7------------------------------------------|
D|------------------------------8----7s8-----1h3-3b4r3p1-----------------|
A|--------------------------------10-----1h3-------------3p1-3-1---------|
E|-----------------------------------------------------------------------|


e|------------------------------------------------------------------------|
B|------------------------------------------------------------------------|
G|-----------------------------------------------------------5-6-8--------|
D|---------------------------------5-6-8--------7-8-10-5-6-8-------7-8-10-|
A|-------4-6-8--------6-8-10-4-6-8-------6-8-10---------------------------|
E|-4-6-8-------6-8-10-----------------------------------------------------|

e|-----------------------------------------6-8-9---------8-10-11s13p11---|
B|--------------6-8-9--------8-10-11-6-8-9-------8-10-11-----------------|
G|-7-8-10-5-6-8-------7-8-10---------------------------------------------|
D|-----------------------------------------------------------------------|
A|-----------------------------------------------------------------------|
E|-----------------------------------------------------------------------|

e|-------13s15p11-------15-8-11p10----------------------------------------|
B|-13p11----------15p11------------11-----------------------11------------|
G|------------------------------------7s8-7--------------------12r10-8-10-|
D|------------------------------------------8--------(8-10)---------------|
A|--------------------------------------------10(p8)----------------------|
E|------------------------------------------------------------------------|

e|------------------------------------11----11-13b15-13-15p11-------15p11-|
B|------------------------------11s13----13-------------------15p11-------|
G|----8h10------8----8-10b12-10-------------------------------------------|
D|-10------8s10---10------------------------------------------------------|
A|------------------------------------------------------------------------|
E|------------------------------------------------------------------------|

e|-------15p11-------15p11-------15p11-------15p11-------15p11-----------|
B|-15p11-------15p11-------15p11-------15p11-------15p11-------15p11-----|
G|-----------------------------------------------------------------------|
D|-----------------------------------------------------------------------|
A|-----------------------------------------------------------------------|
E|-----------------------------------------------------------------------|


e|-15p11-------------------------------------------10-------10-----------|
B|-------15p11-4------11b13r11p9-8s9------------10-----------------------|
G|---------------5-5-----------------10p8-10b12-------10b12--------------|
D|-----------------------------------------------------------------------|
A|-----------------------------------------------------------------------|
E|-----------------------------------------------------------------------|

e|----------------------------------------------------10-11-10-11-13-----|
B|-----------------------------8-11-9-11-9p8-----------------------------|
G|-10b11r10p8----8---------7-8---------------10-8-7-8--------------------|
D|------------10---7s8-10------------------------------------------------|
A|-----------------------------------------------------------------------|
E|-----------------------------------------------------------------------|

e|-11-13-15-13-15-18-15-18-----------------------------------------------|
B|----------------------------------------------18-------18-20----18-20--|
G|-------------------------17-19-20-20-17-19-20----19-20-------20--------|
D|-----------------------------------------------------------------------|
A|-----------------------------------------------------------------------|
E|-----------------------------------------------------------------------|

e|-18-------18-21b22-22b23r22-18-16p15-16-18b20r18p15-18b20-18b20--------|
B|----18-20--------------------------------------------------------------|
G|-----------------------------------------------------------------------|
D|-----------------------------------------------------------------------|
A|-----------------------------------------------------------------------|
E|-----------------------------------------------------------------------|

e|-18b20r18p15-----------------------------------------------------------|
B|--------------18-16----------16p15-------------16p15-------------------|
G|--------------------17-15-17-------17p15-------------17p15-------------|
D|-----------------------------------------17p15-------------17p15-------|
A|-----------------------------------------------------------------------|
E|-----------------------------------------------------------------------|

e|-------------------------------------------------18p15-------18p15-----|
B|-18p15-------18p15-------18p15-------18p15-------------18p15-----------|
G|-------17p15-------17p15-------17p15-------17p15-----------------------|
D|-----------------------------------------------------------------------|
A|-----------------------------------------------------------------------|
E|-----------------------------------------------------------------------|

e|-------18p15-------18p15-------18p15-------18p15-------18p15-----------|
B|-16p15-------18p15-------16p15-------18p15-------16p15-------18p15-----|
G|-----------------------------------------------------------------------|
D|-----------------------------------------------------------------------|
A|-----------------------------------------------------------------------|
E|-----------------------------------------------------------------------|

e|-18p15-------18p15-------18p15-------18p15-------18p15-------18p15-----|
B|-------16p15-------18p15-------16p15-------18p15-------16p15-----------|
G|-----------------------------------------------------------------------|
D|-----------------------------------------------------------------------|
A|-----------------------------------------------------------------------|
E|-----------------------------------------------------------------------|

e|-------------------------------------15-16------------------------------|
B|-18p15-------------------------16-18-------18---------16-18-18b20r18b20-|
G|-------17-------------13-15-12-----------------15s17--------------------|
D|----------------13-15---------------------------------------------------|
A|-------------15---------------------------------------------------------|
E|----------16------------------------------------------------------------|

e|-22-------------20-------------------------------------------------15--|
B|----18b20r18b20----18b20r18p16-18-16-15h16p15-------------15-16-18-----|
G|----------------------------------------------15----15s17--------------|
D|-------------------------------------------------17--------------------|
A|-----------------------------------------------------------------------|
E|-----------------------------------------------------------------------|

e|-18s20-20p18-18-18b19-19-21b22-22b23-23-20-----------------------------|
B|----------------------------------------------------------18----18-----|
G|-------------------------------------------17----17p15-------17----17--|
D|----------------------------------------------17-------15--------------|
A|-----------------------------------------------------------------------|
E|-----------------------------------------------------------------------|

e|----------------16-16h18-------18-18b20r18-16-16h18-15-12-13-15-20b22--|
B|----18-16----------------16-16-----------------------------------------|
G|-17-------15-15--------------------------------------------------------|
D|-----------------------------------------------------------------------|
A|-----------------------------------------------------------------------|
E|-----------------------------------------------------------------------|

e|-20-12-13-15s17s15--17--15--||
B|--------------------17--15--||
G|--------------------14--12--||
D|----------------------------||
A|----------------------------||
E|----------------------------||
Добавлено: 30.05.2012
Вам также может быть интересно:
Другие материалы по этой песне:
  • Аккорды и текст

Страница создана 30.05.2012
http://primanota.ru/stef-burns/echo-lake-chords.htm
Привет, Гость.
Предлагаем пройти революционный курс по гитаре.
Подарок от PrimaNota.Ru, забирай!