PrimaNota.ru - самый крупный в мире бесплатный архив песенных текстов, аккордов, табулатур и нот


Steely Dan - Everyone's Gone to The Movies - текст песни, бас-таба, видео

Регистрация Запомнить меня
Войти через:  Facebook Google Twitter Vk Yandex Mail.ru

Steely Dan - Everyone's Gone to The Movies - текст песни, бас-таба, видео

Печатать
Просмотров: 132
Уроки эстрадного вокала в Санкт-Петербурге
                            Everyone's Gone To The Movies
                                     Steely Dan

Bass                                                              Donald Fagen
                                                                 Walter Becker

Intro

|-----------------|-----------------|-----------------|-----------------|
|-----------------|-----------------|-----------------|-----------------|
|-5-----5-5-----5-|-5-----5-5-----5-|-3-----3-3-----3-|-3-----3-3---3---|
|-----------------|-----------------|-----------------|-----------------|
  E E E E E E E E   E E E E E E E E   E E E E E E E E   E E E E Q   Q  

Verse 1
                                   x6
||------------------|------------------||
||o-3-----3---------|-2-----2---------o||
||o---------3-----3-|---------0-----0-o||
||------------------|------------------||
   E E E E E E E E   E E E E E E E E

                                      x3
||------------------|--------------------||-----------------|-------------------|
||o-5-----5---------|-4-----4-------0-4-o||-5-----5---------|-4-----4-----------|
||o---------5-----5-|---------2---2-----o||---------5-----5-|---------2---------|
||------------------|--------------------||-----------------|-------------2-5-2-|
    E E E E E E E E   E E E E S S E E E     E E E E E E E E   E E E E S S E E E

Chorus 1

|---------2-------|-----------------|---------7---7-----|---------7---------|
|-------2-----2---|-2-----2---------|-------7-------7---|-------7-----7---7-|
|-0---0-----------|-----------------|-5---5-----------5-|-5---5---------5---|
|-----------------|---------0-0---0-|-------------------|-------------------|
  Q.  S S Q   Q     Q.    E E E E E   E S S E E E E E E   E S S E E E E E E

|---------2---2---|---------------------|---------7---------|-7---7-------7-|
|-------2-------2-|-2-2---2-------------|-------7-----7---7-|---7-------7---|
|-0---------------|---------2---------2-|-5---5---------5---|-------5-------|
|-----------------|-----------0---0-4---|-------------------|---------------|
  Q.    E E S S Q   E E S S E E S S E E   E S S E E E E E E   E E E Q   E Q

|-----------------|-----------------|
|-----------------|-----------------|
|-3-----------0-2-|-------3-----3---|
|-----0-0-1-3-----|---3-5-----3-----|
  Q   E.S E E E E   E E E Q   E Q

Verse 2 (Same as Verse 1)
                                   x6
||------------------|------------------||
||o-3-----3---------|-2-----2---------o||
||o---------3-----3-|---------0-----0-o||
||------------------|------------------||
   E E E E E E E E    E E E E E E E E

                                      x3
||------------------|--------------------||-----------------|-------------------|
||o-5-----5---------|-4-----4-------0-4-o||-5-----5---------|-4-----4-----------|
||o---------5-----5-|---------2---2-----o||---------5-----5-|---------2---------|
||------------------|--------------------||-----------------|-------------2-5-2-|
    E E E E E E E E   E E E E S S E E E     E E E E E E E E   E E E E S S E E E

Chorus 2

|----------2-------|-------------------|---------7---------|---7---7-------7---|
|--------2-----2---|-2-----------------|-------7-----7---7-|-----7-------7---7-|
|-0--------------0-|-----2-----------2-|-5---5---------5---|---------5---------|
|------------------|-------0---0-0-4---|-------------------|-------------------|
  Q.     E E S S E   E E E E S S E E E   E S S E E E E E E   S S E E Q   E E E

|--------2---2-----|-------------------|---------7---------|-----7-------7-----|
|------2-------2---|-2-----------------|-------7-----------|---7-------7-------|
|-0--------------0-|-----2-----------2-|-5---5-----------5-|-5-----5-----------|
|------------------|-------0---0-0-4---|-------------------|-------------------|
  Q.   E E S S E E   E E E E S S E E E   E S S E H       E   E E E Q   E Q

|-----------------|-------5-----------|
|-----------------|-----5-------------|
|-3-----3-------2-|-3-------3---3-5-3-|
|---------0-0-4---|-------------------|
  Q.    E E.S E E   E S S E Q   E E E

Solo

|-----------------|-----------------|-----------------|-----------------|
|-------0-----0-1-|-2-2---2---------|-------------0-1-|-2---2-----------|
|-----0---3-3-----|---------0-2-3---|-----0-0-3-3-----|-------0-0---3-0-|
|-1---------------|-----------------|-1-1-------------|-----------------|
  Q   E E E E E E   E E E E E E Q     E E E E E E E E   Q.  E E E S S E

|---------------------|-----------------|-----------------|-----------------|
|-----------------0-2-|-2-----2---------|-3-3---------0-2-|-2-----2---------|
|-----0-0-0-3-3-------|---------0-5-3-3-|-----0-2-3-3-----|---------0-0-3-0-|
|-1-1-----------------|-----------------|-----------------|-----------------|
  E E E S S E E E S S   Q.    E E.S E E   E.S E E E E E E   Q.    E E E E E

Verse 3

||------------------|------------------||
||o-3-----3---------|-2-----2---------o||
||o---------3-----3-|---------0-----0-o||
||------------------|------------------||
    E E E E E E E E   E E E E E E E E

                                      x6
|------------------|--------------------|-----------------|-------------4-----|
|o-5-----5---------|-4-----4-------0-4-o|-5-----5---------|-----------4---4---|
|o---------5-----5-|---------2---2-----o|---------5-----5-|-------4-2-------2-|
|------------------|--------------------|-----------------|-2---5-------------|
   E E E E E E E E   E E E E S S E E E    E E E E E E E E   Q   E.S E E S S E

Chorus 3

|---------2-------|-------------------|---------7---7-------|-----7---------7-|
|-------2-----2-2-|-2-2---------------|-------7-------7---7-|---7---7-----7---|
|-0-0-------------|---------2-------2-|-5---5-----------5---|-----------5-----|
|-----------------|-----------0-0-4---|---------------------|-----------------|
  E Q   E E S S Q   E Q   S S E.S E E   E S S E E S S E E E   E E E Q   E E E

|-----------------|-------------------|---------7---7-----|-----7-----------|
|-------2-------2-|-2-----------------|-------7-------7---|---7---7---------|
|-0-------0-0-0---|-----2-----------2-|-5---5-----------5-|-----------5---5-|
|-----------------|-------0---0-0-4---|-------------------|-------------5---|
  Q.  S S E E E E   E E E E S S E E E   E S S E Q   E E E   E E E Q   E E E

|-----------------|-------------5---|
|-----------------|-----------5---5-|
|-3-----------0-2-|-3-----3---------|
|-----0-0-2-3-----|---3-0-----------|
  Q   E.S E E E E   E E E Q   E E E

Outro

|-----------------|-------------------|-----------------|---------------------|
|-3-----3---------|-2-----0-2-----0-2-|-3-----3---------|-2-----0-2-------0-2-|
|---------3-----3-|-----2-----0-3-----|---------3-----3-|-----2-----0---2-----|
|-----------------|-------------------|-----------------|---------------------|
  E E E E E E E E   E S S E E E E E E   E E E E E E E E   E S S E E E S S E E

|-------------------|-------------------|
|-3-----------------|-2-----2-------0-2-|
|-----3-5-3-3---5-3-|---------0---2-----|
|-------------------|-------------------|
  E S S E E E E E E   E E E E E S S E E

                          Repeat To Fade
||------------------|----------------------||
||o-3-----3---------|-2-----0-2-------0-2-o||
||o---------3-----3-|-----2-----0---2-----o||
||------------------|----------------------||
    E E E E E E E E   E S S E E E S S E E


Key to rhythm notations:

W - Whole Note/Semi-Brieve
H - Half Note/Minim
Q - Quarter Note/Crotchet       Q. - Dotted Quarter Note
E - Eight Note/Quaver           E. - Dotted Eight Note
S - Sixteenth Note/Semi-Quaver  S. - Dotted Sixteenth Note
Добавлено: 26.05.2015
Другие материалы по этой песне:
  • Аккорды и текст

Страница создана 09.07.2012
http://primanota.ru/steely-dan/everyones-gone-to-the-movies-chords.htm
Привет, Гость.
Предлагаем пройти революционный курс по гитаре.
Подарок от PrimaNota.Ru, забирай!