PrimaNota.ru - самый крупный в мире бесплатный архив песенных текстов, аккордов, табулатур и нот


Steely Dan - Daddy Don't Live In That New York City No More - текст песни, бас-таба, видео

Регистрация Запомнить меня
Войти через:  Facebook Google Twitter Vk Yandex Mail.ru

Steely Dan - Daddy Don't Live In That New York City No More - текст песни, бас-таба, видео

Печатать
Просмотров: 134
                              Daddy Don't Live In That 
                               New York City No More
                                     Steely Dan

Bass                                                              Donald Fagen
                                                                 Walter Becker

Intro

|---------|-----------------|---------------9-|-----------------|---------------|
|-------1-|-2---2-0---x-----|-2---2-------9---|-2---2-0---x-----|-2---2---------|
|---2-4---|-------------4-2-|-------2---x-----|-------------4-2-|-------2-5-----|
|---------|-----------------|-----------------|-----------------|-----------3---|
  E E E E   Q.  E S E S E E   Q.  E S E S E E   Q.  E S E S E E   Q.  E E E Q

Verse 1 & 2

|------------------|-----------------|-----------------|-----------------|
|o-2-----2-0-----0-|-2-----2-0-------|-----------------|-----------------|
|o-----------2-2---|-----------2-----|-2---2-x---------|-2---2-x-----2-5-|
|------------------|---------------2-|---------2-2-5-5-|---------2-5-----|
   Q.  S S E E E E   Q.  S S E E E E   Q.  S S E E E E   Q.  S S E E E E 

|-----------------|-----------------|-----------------|-----------------|
|-2-----2-0-----0-|-2-----2-0-------|-----------------|-----------------|
|-----------2-2---|-----------2-----|-2---2-x---------|-2---2-x---------|
|-----------------|---------------2-|---------2-2-5-5-|---------2-2-5-5-|
  Q.  S S E E E E   Q.  S S E E E E   Q.  S S E E E E   Q.  S S E E E E 

|-2---x-x---------|-2---x-x---------|-----------------|-----------------|
|-----------------|-----------------|-5-----5---------|-----3-----------|
|---------0-0---0-|---------0-0---0-|---------5-----5-|-3---------------|
|-----------------|-----------------|-----------------|-----------------|
  Q.  S S E E E E   Q.  S S E E E E   Q.    E Q.    E   Q   H.
                                      __________________________________
                                     |1.
|-----------------|-----------------|-----------------|-----------------|
|-2-----2---------|-----------------|-----------------|-----------------|
|---------2-2-----|-2-----2-5-------|-0---x-x---------|-0---x-x---------|
|---------------2-|-----------------|---------0-0---0-|---------0-0---0-|
  Q.    E E E E E   Q.    E H         Q.  S S E E E E   Q.  S S E E E E
___________________________________   __________________________________
                                   | |2.
|-----------------|-----------------|-----------------|-----------------|
|-----------------|----------------o|-----------------|-----------------|
|-3---x-x---------|-3---2----------o|-0---x-x---------|-0---x-x---------|
|---------3-3---3-|-----------------|---------0-0---3-|---------0-0---3-|
  Q.  S S E E E E   Q   H.            Q.  S S E E E E   Q.  S S E E E E

|-----------------|-----------------|-----------------|-----------------|
|-----------------|-----------------|-2-----2-------0-|-2---5-------2-5-|
|-3---x-x-------2-|-3---x-x-----3---|---------2-2-----|---------2-5-----|
|---------3-3-----|---------3-3-----|-----------------|-----------------|
  Q.  S S E E E E   Q.  S S E E Q     Q.    E E E E E   E E E E E E E E

Bridge

|-----------------|-----------------|-----------------|-----------------|
|-6-----6-------4-|-2-----2-------0-|-----------------|-----------------|
|---------6-6-----|---------2-2-----|-4-----4-------2-|-1-----1-6-------|
|-----------------|-----------------|---------4-4-----|-----------------|
  Q.    E E Q   E   Q.    E E Q   E   Q.    E E Q   E   Q.    E H

|-----------------|-----------------|-----------------|-----------------|
|-6-----6-------4-|-2-----2-------0-|-7---------5---4-|-------3---------|
|---------6-6-----|---------2-2-----|-----------------|-----------------|
|-----------------|-----------------|-----------------|-----------------|
  Q.    E E Q   E   Q.    E E Q   E   H       E Q   E   Q.    E H

|-----------------|---------------9-|-----------------|---------------|
|-2---2-0---x-----|-2---2-------9---|-2---2-0---x-----|-2---2-----2---|
|-------------4-2-|-------2---x-----|-------------4-2-|-------2-5---5-|
|-----------------|-----------------|-----------------|---------------|
  Q.  E S E S E E   Q.  E S E S E E   Q.  E S E S E E   Q.  E E E E E

Verse 3

|------------------|-----------------|-----------------|-----------------|
|o-2-----2-0-----0-|-2-----2-0-------|-----------------|-----------------|
|o-----------2-2---|-----------2-----|-2---2-x---------|-2---2-x-----2-5-|
|------------------|---------------2-|---------2-2-5-5-|---------2-5-----|
   Q.  S S E E E E   Q.  S S E E E E   Q.  S S E E E E   Q.  S S E E E E 

|-----------------|-----------------|-----------------|-----------------|
|-2-----2-0-----0-|-2-----2-0-------|-----------------|-----------------|
|-----------2-2---|-----------2-----|-2---2-x---------|-2---2-x---------|
|-----------------|---------------2-|---------2-2-5-5-|---------2-2-5-5-|
  Q.  S S E E E E   Q.  S S E E E E   Q.  S S E E E E   Q.  S S E E E E 

|-2---x-x---------|-2---x-x---------|-----------------|-----------------|
|-----------------|-----------------|-5-----5---------|-----3-----------|
|---------0-0---0-|---------0-0---0-|---------5-----5-|-3---------------|
|-----------------|-----------------|-----------------|-----------------|
  Q.  S S E E E E   Q.  S S E E E E   Q.    E Q.    E   Q   H.

|-----------------|-----------------|-----------------|-----------------|
|-2-----2---------|-----------------|-----------------|-----------------|
|---------2-2-----|-2-----2-5-------|-0---x-x---------|-0---x-x---------|
|---------------2-|-----------------|---------0-0---0-|---------0-0---3-|
  Q.    E E E E E   Q.    E H         Q.  S S E E E E   Q.  S S E E E E

|-----------------|-----------------|
|-----------------|-----------------|
|-3---x-x-------2-|-3---x-x-----3---|
|---------3-3-----|---------3-3-----|
  Q.  S S E E E E   Q.  S S E E Q

Outro

|-----------------|---------------9-|-----------------|---------------|
|-2---2-0---x-----|-2---2-------9---|-2---2-0---x-----|-2---2---------|
|-------------4-2-|-------2---x-----|-------------4-2-|-------5-2-4-0-|
|-----------------|-----------------|-----------------|---------------|
  Q.  E S E S E E   Q.  E S E S E E   Q.  E S E S E E   Q.  E E E S S.

|------------------|---------------9-|-----------------|----------------|
|o-2---2-0---x-----|-2---2-------9---|-2---2-0---x-----|-2---2---------o|
|o-------------4-2-|-------2---x-----|-------------4-2-|-------5-2-2-5-o|
|------------------|-----------------|-----------------|----------------|
  Q.  E S E S E E   Q.  E S E S E E   Q.  E S E S E E   Q.  E E E E E
                                                           Repeat to fade

Key to rhythm notations:

W - Whole Note/Semi-Brieve
H - Half Note/Minim
Q - Quarter Note/Crotchet       Q. - Dotted Quarter Note
E - Eight Note/Quaver           E. - Dotted Eight Note
S - Sixteenth Note/Semi-Quaver  S. - Dotted Sixteenth Note
Добавлено: 26.05.2015
Другие материалы по этой песне:

Страница создана 10.04.2012
http://primanota.ru/steely-dan/daddy-dont-live-in-that-new-york-city-no-more-chords.htm
Привет, Гость.
Предлагаем пройти революционный курс по гитаре.
Подарок от PrimaNota.Ru, забирай!