PrimaNota.ru - самый крупный в мире бесплатный архив песенных текстов, аккордов, табулатур и нот


Steely Dan - Bodhisattva - текст песни, таба, видео

Регистрация Запомнить меня
Войти через:  Facebook Google Twitter Vk Yandex Mail.ru

Steely Dan - Bodhisattva - текст песни, таба, видео

Печатать
Просмотров: 176
Авторы: Donald Fagen, Walter Becker

I will admit I did not write this tab I just thought I would share it with the public 
this solo is epic and very hard to play.

Fair use of the chromatic scale in this one :]

Steely Dan
Bodhisattva
Countdown To Ecstasy
1973

e-||-----------3---3-3---------------------|
B-||-3-5-6-5-3---3-----6-3-----------------|
G-||-----------------------0-5-3-4---------|
D-||-------------------------------5-0-3-5-|
A-||---------------------------------------|
E-||---------------------------------------|

e-||----------------------------------5-3---|
B-||----------------------3-4-5-3-4-5-----5-|
G-||----------------3-4-5-------------------|
D-||-5-------3-4-5--------------------------|
A-||---3-4-5--------------------------------|
E-||----------------------------------------|

e-||-5-3-5-6-5-3---5-4-3---------------------|
B-||-------------5-------3-6-3-5-4-3---------|
G-||---------------------------------5-4-3---|
D-||---------------------------------------5-|
A-||-----------------------------------------|
E-||-----------------------------------------|

e-||-------------------------------------------|
B-||-------------------------------------------|
G-||-------3---------------------------------2-|
D-||-3-4-5---5---------------2-0-0-------2-3---|
A-||-----------6-5-4-0-0-2-4-------3-4-5-------|
E-||-------------------------------------------|

e-||-------------------------2-3---3-6-5-4-3-4-5---5-6-|
B-||-----------------------4-----4---------------6-----|
G-||-5-4-3-2-2-2-5-4-3-2-3-----------------------------|
D-||---------------------------------------------------|
A-||---------------------------------------------------|
E-||---------------------------------------------------|

e-||-7---5--3---------------------------------------|
B-||---8--6---3-6-5---3-----------------------------|
G-||----------------5---3-6-5-4---------------------|
D-||----------------------------5-0-3---------------|
A-||----------------------------------5-4-3-5-4-3-1-|
E-||------------------------------------------------|

e-||-----------------------------------6-6/--|
B-||-----------------------------------6-6/--|
G-||-----------------------------------0-0/--|
D-||-----------------------------------------|
A-||-2-------1-2-2-3-2-3-4-4-4-5-3-4-5-------|
E-||---3-1-3---------------------------------|

e-||--------------------------------------------|
B-||-3-5-5--------------------------------------|
G-||-------5-2----------------------------------|
D-||-----------3-3-------------------------5-5--|
A-||---------------5-5-3-1-0-0-------1-3-6------|
E-||---------------------------1-1-3------------|

e-||------------------------------------------------|
B-||-------5-8-8-6-6--------------------------------|
G-||-3-3-6-----------7-5-3-3-------------2-2-5-2-3--|
D-||-------------------------5-5-----3-3------------|
A-||-----------------------------6-5----------------|
E-||------------------------------------------------|

e-||---------------------------------------------------|
B-||-------------------3-5-3-5-6-5-3-------------------|
G-||-4---------3-5-2-4---------------0-5-3-4-----------|
D-||---5-3-4-5-------------------------------5-4-3-----|
A-||-----------------------------------------------5-4-|
E-||---------------------------------------------------|

e-||------------------------------------------|
B-||------------------------------------------|
G-||------------------------------------------|
D-||-----------------5--5---3-5-------3-5-3-4-|
A-||-3-1-2---2-3-3-5---5--5-----3-4-5---------|
E-||-------3----------------------------------|

e-||-------------------------------------------------------|
B-||-----------3-------------------------------------------|
G-||---3-5-3-4---------------------------3-4-5-6-3-4-5-6---|
D-||-4-----------5-------3-4-5-4-3-4-5-6-------------------|
A-||---------------3-4-5-----------------------------------|
E-||-------------------------------------------------------|

e-||-----------------------------------------------|
B-||-------------------------------3-5-3-5-6-5-3---|
G-||-------------------------3-5-4---------------5-|
D-||-0-5-4-3-0-0-0-0-0-3-0-5-----------------------|
A-||-----------------------------------------------|
E-||-----------------------------------------------|

e-||------------------------------------------------|
B-||-----------------------------------------5-6-5--|
G-||-4-3-5-3-5-3-5-3-5-3-6-3-6-3-5-7-5-7-5-7--------|
D-||------------------------------------------------|
A-||------------------------------------------------|
E-||------------------------------------------------|

e-||-------------------6---6-8-9-6---8-7-6-5-5-6-5-6-|
B-||-6-5-6-5-8-6-8-6-8---8---------8-----------------|
G-||-------------------------------------------------|
D-||-------------------------------------------------|
A-||-------------------------------------------------|
E-||-------------------------------------------------|

e-||-7-5-5-----------------------------------------|
B-||-------6-3-------------------------------------|
G-||-----------5-3-4---2-2-------------------------|
D-||-----------------5-----------------------------|
A-||-----------------------5-3-2---0-0-------------|
E-||-----------------------------3-----1-3-3-0-1-1-|

Have fun with this one :]
Добавлено: 30.04.2012
Другие материалы по этой песне:

Страница создана 15.03.2012
http://primanota.ru/steely-dan/bodhisattva-chords.htm
Привет, Гость.
Предлагаем пройти революционный курс по гитаре.
Подарок от PrimaNota.Ru, забирай!