PrimaNota.ru - самый крупный в мире бесплатный архив песенных текстов, аккордов, табулатур и нот


Steel Panther - I Like Drugs - бас-таба, видео

Регистрация Запомнить меня
Войти через:  Facebook Google Twitter Vk Yandex Mail.ru

Steel Panther - I Like Drugs - бас-таба, видео

Печатать
Просмотров: 144
Авторы музыки: Steel Panther
Авторы текста: Steel Panther
Intro
F#|--------------------------------------------------------|
C#|--------------------------------------------------------|
G#|------------77-5-420----77-5-420----77-5-420--2---------|
D#|-3~---------------------------------------------3b-3b-0-|

Verse
F#|-------------------------------|
C#|------------------1------------|
G#|-77-766-77----0x-0-----0232----|
D#|--------------------3------3p0-|x3

Pre-Chorus
F#|--------------------------------------|
C#|--------------------------------------|
G#|-44444444-55555555-00000000-22x----3x-|
D#|--------------------------------0x----|

Chorus
F#|---------------------------------------------------------------|
C#|---------------------------------------------------------------|
G#|-222------22-----222-----55-2~-----222---222---222-------------|
D#|----0x--00--0-------0--00-------------0x----0x----0~---00-5~5~-|

Intro 2
F#|---------------------------------------------|
C#|---------------------------------------------|
G#|-77-54-20---77-54-20----77-54-20---2---------|
D#|------------------------------------3b-3b-0~-|

Verse 2
F#|-------------------------------|
C#|------------------1------------|
G#|-77-766-77----0x-0-----0232----|
D#|--------------------3------3p0-|x3

Pre-Chorus 2
F#|--------------------------------------|
C#|--------------------------------------|
G#|-44444444-55555555-00000000-22x----3x-|
D#|--------------------------------0x----|

Chorus 2
F#|-----------------------------------------------------------------|
C#|-----------------------------------------------------------------|
G#|-222------22-----222-----55-2~-----222---222---222---------------|
D#|----0x--00--0-------0--00-------------0x----0x----0~---00-5~5~7~-|

Bridge
F#|-------------------------------------|
C#|-------------------------------------|
G#|-44444444-55555555-00000000----------|
D#|----------------------------22222222-|x2

Solo
F#|-------------------------------------|
C#|-------------------------------------|
G#|-44444444-44444444-00000000----------|
D#|----------------------------22222222-|x2

Bridge Part 2
F#|---------------------------------------------|
C#|---------------------------------------------|
G#|-4/5555555-55555555-----77-54-20----77-54-20-|
D#|---------------------------------------------|x2

F#|--------------------|
C#|--------------------|
G#|-4/5555555-55555555-|
D#|--------------------|x1


Verse 3
F#|-------------------------------|
C#|------------------1------------|
G#|-77-766-77----0x-0-----0232----|
D#|--------------------3------3p0-|x2

Pre-Chorus 3
F#|--------------------------------------|
C#|--------------------------------------|
G#|-44444444-55555555-00000000-22x-------|
D#|--------------------------------0x----|x1

Chorus 3
F#|-----------------------------------------------------------------------------------------|
C#|-----------------------------------------------------------------------------------------|
G#|-222------2~-2~-----------222-----2-2------222-----2-2-----222---222---222---------------|
D#|----0x--00------0~-----------0--00---0--------0--00---0-------0x----0x----0~---00-5~5~7~-|

Outro - (Variation of Main Riff)
F#|------------------------------|
C#|------------------------------|
G#|-22-0-------------------------|
D#|------430---------------------| - Just Loop It

F#|------------------------------|
C#|------------------------------|
G#|-2~----22~----222~----2x------|
D#|------------------------------|

Jack Mills
Добавлено: 01.09.2013
Другие материалы по этой песне:
  • Аккорды и текст

Страница создана 01.09.2013
http://primanota.ru/steel-panther/i-like-drugs-chords.htm
Привет, Гость.
Предлагаем пройти революционный курс по гитаре.
Подарок от PrimaNota.Ru, забирай!