PrimaNota.ru - самый крупный в мире бесплатный архив песенных текстов, аккордов, табулатур и нот


Steel Panther - Critter - таба, видео

Регистрация Запомнить меня
Войти через:  Facebook Google Twitter Vk Yandex Mail.ru

Steel Panther - Critter - таба, видео

Печатать
Просмотров: 100
Авторы музыки: Steel Panther
Авторы текста: Steel Panther
Song: Critter
Band: Steel Panther
Album: Balls Out
Tabbed by: iloveamanda12

I've noticed that the other tab(s) for this song have it mostly correct, but are missing details. One instance
is located in the verses, where there is more going on than most people apparently catch. The other major detail
is the sweep lick in the guitar solo. That is often mistaken as a hammer-on lick. I also added the guitar solo
harmonies. Anyway, as always, a great comical song by Steel Panther and amazing guitar work by Satchel.

Intro
      . .   . .    . .   . .   .
d#|---------------------------------|
A#|-6-----6-----7------7-----7------|
F#|-5-----5-----7------7-----7------|
C#|-3-----3-----4------4-----4------|
G#|---0-0---0-0----0-0---0-0---0-3b-|
D#|---------------------------------|

======

Pre-verse 1

gtr 1

d#|--------------------------------------------------------------|
A#|--------------------------------------------------------------|
F#|-----------------------------------------------------5*-5*-5*-|
C#|--------5------5-7~------5---------------5------5-7~-5*-5*-5*-|
G#|-0--6-7---6-7-------6-7----6-5-------6-7---6-7-------3*-3*-3*-|
D#|-------------------------------8-5~---------------------------|

gtr 2

d#|--------------------------------------------------------------|
A#|--------------------------------------------------------------|
F#|--------------------------------------------------------------|
C#|--------------------------------------------------------------|
G#|--------------------------------------------------------------|
D#|--------------------------------------------------------------|

=

gtr 1

d#|-------------------------------------------------------------|
A#|-----------------------------------------------------------3-|
F#|-----------------------------------------------------5*-5*-0-|
C#|--------5------5-7~------5---------------5------5-7~-5*-5*-0-|
G#|-0--6-7---6-7-------6-7----6-5-------6-7---6-7-------3*-3*---|
D#|-------------------------------8-5~--------------------------|

gtr 2

d#|-22br-20~-20br--17------------17-------------------------------------------| 
A#|------------------------20b--------20-17----20-17----17-----------17-------|
F#|-----------------------------------------20-------20----20-19-17~-17----19~|
C#|---------------------------------------------------------------------17----|
G#|---------------------------------------------------------------------------|
D#|---------------------------------------------------------------------------|

======

Verse 1 ("If you love your lady...")

                          x3
d#|-----------------------|
A#|-3--6--8--6--6-5*--5/3-|
F#|-2--3--5--5--5-5*--5/3-|
C#|-0--------7--7-5*--5/3-|
G#|-0---------------------|
D#|-----------------------|

=

       . . . . . .      . . . . . .
d#|---------------------------------------------------------------|
A#|---------------------------------------------------------------|
F#|-3----------------5--------------------------7-----------------|
C#|-3----------------5------------------------7---7---6*-6*-6*-6*-|
G#|-1--1-1-1-1-1-1---3--3-3-3-3-3-3---5~--7-8-------7-7*-7*-7*-7*-|
D#|---------------------------------------------------0*-0*-0*-0*-|

======

Chorus 1 ("Hit her in the shitter...")
      .
d#|---------------------------------------------------|
A#|-------------6-6-6--6-6--------------3-------------|
F#|-2---2--2-2--5-5-4--4-5--5--5--5--5--0-------------|
C#|-2---2--2-2--3-3-3--3-3--5--5--5--5--0-----2-------|
G#|-0-0-0--0-0--------------3--3--3--3----2-3---3-2---|
D#|-------------------------------------------------3-|

=

      .
d#|-----------------------------------------------------------|
A#|-------------6-6-6--6-6------------------------------------|
F#|-2---2--2-2--5-5-4--4-5--5--5--5--5--9-9---9-9---9-9---9-9-|
C#|-2---2--2-2--3-3-3--3-3--5--5--5--5--9-9---9-9---9-9---9-9-|
G#|-0-0-0--0-0--------------3--3--3--3--7-7---7-7---7-7---7-7-|
D#|-----------------------------------------0-----0-----0-----|

======

Pre-Verse 2

gtr 1

d#|----------------------------------------------------------------|
A#|--------------------------------------------------------------3-|
F#|-----------------------------------------------------5*-5*-5*-0-|
C#|--------5------5-7~------5---------------5------5-7~-5*-5*-5*-0-|
G#|-0--6-7---6-7-------6-7----6-5-------6-7---6-7-------3*-3*-3*---|
D#|-------------------------------8-5~-----------------------------|

gtr 2

d#|--------------------------------------------------------------------|
A#|----------------------------------------------------------------[5]-|
F#|---------------------------------------------------[12]-----[5]-----|
C#|--------------------------------------------------------[5]---------|
G#|--------------------------------------------------------------------|
D#|--------------------------------------------------------------------|

======

Verse 2 ("If you're at the strip joint...")

gtr 1

d#|-----------------------|
A#|-3--6--8--6--6-5*--5/3-|
F#|-2--3--5--5--5-5*--5/3-|
C#|-0--------7--7-5*--5/3-|
G#|-0---------------------|
D#|-----------------------|

gtr 2

d#|-----------------------|
A#|-----------------------|
F#|-----------------------|
C#|-----------------------|
G#|-----------------------|
D#|-----------------------|

=

gtr 1

d#|-----------------------|
A#|-3--6--8--6--6-5*--5/3-|
F#|-2--3--5--5--5-5*--5/3-|
C#|-0--------7--7-5*--5/3-|
G#|-0---------------------|
D#|-----------------------|

gtr 2

d#|-----------------20~-20b~-20b~----|
A#|-----------18h20---------------20~|
F#|----------------------------------|
C#|----------------------------------|
G#|----------------------------------|
D#|----------------------------------|

=

gtr 1

d#|-----------------------|
A#|-3--6--8--6--6-5*--5/3-|
F#|-2--3--5--5--5-5*--5/3-|
C#|-0--------7--7-5*--5/3-|
G#|-0---------------------|
D#|-----------------------|

gtr 2

d#|-----------------------|
A#|-----------------------|
F#|-----------------------|
C#|-----------------------|
G#|-----------------------|
D#|-----------------------|

=

       . . . . . .      . . . . . .
d#|---------------------------------------------------------------|
A#|---------------------------------------------------------------|
F#|-3----------------5--------------------------7-----------------|
C#|-3----------------5------------------------7---7---6*-6*-6*-6*-|
G#|-1--1-1-1-1-1-1---3--3-3-3-3-3-3---5~--7-8-------7-7*-7*-7*-7*-|
D#|---------------------------------------------------0*-0*-0*-0*-|

======

Chorus 2 ("Hit her in the shitter...")
      .
d#|---------------------------------------------------|
A#|-------------6-6-6--6-6--------------3-------------|
F#|-2---2--2-2--5-5-4--4-5--5--5--5--5--0-------------|
C#|-2---2--2-2--3-3-3--3-3--5--5--5--5--0-----2-------|
G#|-0-0-0--0-0--------------3--3--3--3----2-3---3-2---|
D#|-------------------------------------------------3-|

=

      .                                 . .   . .
d#|-----------------------------------------------|
A#|-------------6-6-6--6-6------------------------|
F#|-2---2--2-2--5-5-4--4-5--5--5--5--5--9-9*--9-9*|
C#|-2---2--2-2--3-3-3--3-3--5--5--5--5--9-9*--9-9*|
G#|-0-0-0--0-0--------------3--3--3--3--7-7*--7-7*|
D#|-----------------------------------------------|

=

      .
d#|---------------------------------------------------|
A#|-------------6-6-6--6-6--------------3-------------|
F#|-2---2--2-2--5-5-4--4-5--5--5--5--5--0-------------|
C#|-2---2--2-2--3-3-3--3-3--5--5--5--5--0-----2-------|
G#|-0-0-0--0-0--------------3--3--3--3----2-3---3-2---|
D#|-------------------------------------------------3-|

=

      .
d#|-----------------------------------------------------------------|
A#|-------------6-6-6--6-6------------------------------------------|
F#|-2---2--2-2--5-5-4--4-5--5--5--5--5--9-9---9-9---9-9---9-9-------|
C#|-2---2--2-2--3-3-3--3-3--5--5--5--5--9-9---9-9---9-9---9-9-------|
G#|-0-0-0--0-0--------------3--3--3--3--7-7---7-7---7-7---7-7-------|
D#|-----------------------------------------0-----0-----0-----5-4-2-|

======

Solo

gtr 1 (rhythm)

d#|------------------------------------------------------|
A#|------------------------------------------------------|
F#|-------------7-7-7-7-7----9-9-9-9-9-------------------|
C#|-4-4-4-4-----7-7-7-7-7----9-9-9-9-9---7-7-7-7-7-7-7-7-|
G#|-4-4-4-4-----5-5-5-5-5----7-7-7-7-7---4-4-4-4-4-4-4-4-|
D#|-2-2-2-2----------------------------------------------|

gtr 2

d#|---------------------------------------------------------------------|
A#|-------------------------------------------------15br-14-------------|
F#|-13br-11----11~--13br-11----11~--14br-13----13~----------16-14-13----|
C#|---------14--------------14--------------16-----------------------16-|
G#|---------------------------------------------------------------------|
D#|---------------------------------------------------------------------|

gtr 3

d#|-16br-14----14~--16br-14----14~--17br-16----16~--22br-21-19----------|
A#|---------17--------------17--------------19-----------------22-21-19-|
F#|---------------------------------------------------------------------|
C#|---------------------------------------------------------------------|
G#|---------------------------------------------------------------------|
D#|---------------------------------------------------------------------|

=

gtr 1
                                    .      .      .
d#|-------------------------------------------------|
A#|-------------------------------------------------|
F#|-7-7-7-7-7----4-4-4-4-4--------------------------|
C#|-7-7-7-7-7----4-4-4-4-4------6-6----6-6----6-6---|
G#|-5-5-5-5-5----2-2-2-2-2------4-4-4--4-4-4--4-4-4-|
D#|-------------------------------------------------|

gtr 2

d#|-----------------16br-14----14~--16~--13-----------------------------------|
A#|-17br-15----15~----------17--------------15-12~----------------------------|
F#|---------18--------------------------------------13-10---------------------|
C#|-------------------------------------------------------12~--9------------4-|
G#|--------------------------------------------------------------11-8~--4-2-4-|
D#|-------------------------------------------------------------------------2-|

gtr 3

d#|----------------------------------------------------------------------------|
A#|-15br-14----14~--17br-15----15~--18~--15------------------------------------|
F#|---------16--------------18--------------16---------------------------------|
C#|--------------------------------------------18~--15-----------------------4-|
G#|----------------------------------------------------17-14~----------------4-|
D#|------------------------------------------------------------16-13-9~--5-4-2-|

=

gtr 1

d#|----------------------------------------------------------------|
A#|----------------------------------------------------------------|
F#|-------------7-7-7-7-7----9-9-9-9-9-------------------7-7-7-7-7-|
C#|-4-4-4-4-----7-7-7-7-7----9-9-9-9-9---7-7-7-7-7-7-7-7-7-7-7-7-7-|
G#|-4-4-4-4-----5-5-5-5-5----7-7-7-7-7---4-4-4-4-4-4-4-4-5-5-5-5-5-|
D#|-2-2-2-2--------------------------------------------------------|

gtr 2
gradual release
d#|-19b--19brp17--19b-17h19~-17h19p17\12-14-14/17-12~----------------------|
A#|---------------------------------------------------14p12\10-12-12/14-10~|
F#|------------------------------------------------------------------------|
C#|------------------------------------------------------------------------|
G#|------------------------------------------------------------------------|
D#|------------------------------------------------------------------------|

gtr 3

d#|------------------------------------------------------------------------|
A#|------------------------------------------------------------------------|
F#|------------------------------------------------------------------------|
C#|------------------------------------------------------------------------|
G#|------------------------------------------------------------------------|
D#|------------------------------------------------------------------------|

=

gtr 1

d#|-----------|
A#|-----------|
F#|-4-4-4-4-4-|
C#|-4-4-4-4-4-|
G#|-2-2-2-2-2-|
D#|-----------|

gtr 2
              sweep    ^ sweep     ^
d#|-----------------------------10-14br-16-|
A#|-9b--------------10-13-----12-----------|
F#|----11---------11-----11h13-------------|
C#|-------9---9h12-------------------------|
G#|----------------------------------------|
D#|----------------------------------------|

gtr 3

d#|----------------------------------------|
A#|----------------------------------------|
F#|----------------------------------------|
C#|----------------------------------------|
G#|----------------------------------------|
D#|----------------------------------------|

=

gtr 1
        .      .      .      .
d#|-------------------------------------|
A#|-------------------------------------|
F#|-6-6----6-6----6-6----6-6----6-6-6-6-|
C#|-6-6----6-6----6-6----6-6----6-6-6-6-|
G#|-4-4-4--4-4-4--4-4-4--4-4-4--4-4-4-4-|
D#|-------------------------------------|

gtr 2

d#|-------------------------------------------------|
A#|-14~--15-17-15~--18-19-18~--19-21-21br-19-18-19~-|
F#|-------------------------------------------------|
C#|-------------------------------------------------|
G#|-------------------------------------------------|
D#|-------------------------------------------------|

gtr 3

d#|-----------------16-17-16~--17-19-19br-17-16-17~-|
A#|-18~--19-21-19~----------------------------------|
F#|-------------------------------------------------|
C#|-------------------------------------------------|
G#|-------------------------------------------------|
D#|-------------------------------------------------|

======

Post solo ("Don't be retarded...")

d#|------------------------------------------------|
A#|------------------------------------------------|
F#|-7--9--------------7--9--10--11--7--7--9------9-|
C#|-7--9--7--6--4--2--7--9--9---11--7--7--9------9-|
G#|-5--7--7--6--4--2--5--7--8---9---5--5--7------7-|
D#|-------5--4--2--0-------------------------3-0---|

=
                      x3
d#|-------------------|
A#|-----------3-3-3-3-|
F#|-2-2-2-----2-2-2-2-|
C#|-2-2-2-----0-0-0-0-|
G#|-0-0-0-------------|
D#|-------3p0---------|

=

d#|---------------------------------|
A#|---------------------------------|
F#|-2-2-2-----9-9---9-9---9-9---9-9-|
C#|-2-2-2-----9-9---9-9---9-9---9-9-|
G#|-0-0-0-----7-7---7-7---7-7---7-7-|
D#|-------3p0-----0-----0-----0-----|

======

Outro

gtr 1

d#|--------------------------------------------------------------|
A#|--------------------------------------------------------------|
F#|-----------------------------------------------------5*-5*-5*-|
C#|--------5------5-7~------5---------------5------5-7~-5*-5*-5*-|
G#|-0--6-7---6-7-------6-7----6-5-------6-7---6-7-------3*-3*-3*-|
D#|-------------------------------8-5~---------------------------|

gtr 2

d#|-------------------------------------------------------------------------------|
A#|-----------------------------------------------------15h16p15p13-15-13----/17~-|
F#|-----------------------------------------------------------------------14------|
C#|-------------------------------------------------------------------------------|
G#|-------------------------------------------------------------------------------|
D#|-------------------------------------------------------------------------------|

=

gtr 1

d#|----------------------------------------------------------------|
A#|----------------------------------------------------------------|
F#|-----------------------------------------------------5*-5*-5*---|
C#|--------5------5-7~------5---------------5------5-7~-5*-5*-5*-5-|
G#|-0--6-7---6-7-------6-7----6-5-------6-7---6-7-------3*-3*-3*-5-|
D#|-------------------------------8-5~---------------------------3-|

gtr 2

d#|----------------15-17--------15----------------------------------------------|
A#|----------16-17--------16-17----16-15-13-------------------------------------|
F#|-----------------------------------------14~--14-12-----12-------------------|
C#|----------------------------------------------------14------14-13-------{10}~|
G#|-------------------------------------------------------------------10--------|
D#|-----------------------------------------------------------------------------|

=

gtr 1

d#|---------------------------------------------------------------------------------------------------|
A#|---------------------------------------------------------------------------------------------------|
F#|---------------2*-2*-2*-2------------------------------------------------------------------------2-|
C#|--------5------2*-2*-2*-2------------------------------------------------------------------------2-|
G#|-0--6-7---6-7--0*-0*-0*-0------------------------------------------------------------------------0-|
D#|---------------------------------------------------------------------------------------------------|

gtr 2
                                                                                              \/
d#|---------------17-*-17-*-17-*--17------------------------------------------------------------------|
A#|---------------20b*-20b*-20b*--20brb-17h20p17----17------------------------------------------------|
F#|----------------------------------------------19----19p17----17------------------------------------|
C#|----------------------------------------------------------19----19p17----17------------------------|
G#|----------------------------------------------------------------------19----19p17----17------------|
D#|----------------------------------------------------------------------------------19----19p17------|

==========================================================================================================

LEGEND
------

Layout Notation:

====== - Section, such as Bridge or solo, closed (after correct number of plays, move to the next section)
=      - Section, such as Bridge or solo, still active: after correct number of plays, move to next bar.
x(#)   - Repeat as indicated (x3 indicates repeating the riff twice more, etc.)

Grid Notation:

~      - vibrato (bend the string and release rapidly)
*      - deaden note (stop notes from ringing)
#      - pick slide (#\ indicates sliding lower in pitch, #/ indicates higher in pitch)
X      - dead string (Mute string with your fretting hand)
{}     - pinch harmonic (bring the picking thumb across the string after picking note)
[]     - natural harmonic (lightly rest fretting finger on string, then pick)

/      - slide up (higher in pitch)(2/4 indicates fretting the 2nd fret, then sliding to the 4th without
                a 2nd pick-stroke)
\      - slide down (lower in pitch)(4\2 indicates fretting the 4th fret, then sliding to the 2nd without
                a 2nd pick-stroke)
b      - bend ("16b" would indicate bending the 16th fret)
r      - release bend ("16br" would indicate bending the 16th fret up, then releasing back to neutral position)
br     - bend, then release
brp    - bend, release, then pull; usually in a fluid motion
h      - hammer-on to indicated fret (0h2 indicates picking open string, then fretting the 2nd fret without
                a second pick-stroke)
p      - pull-off to indicated fret (12p10 indicates picking the twelfth fret, then lifting your finger to
                a pre-fretted 10th fret without a second pickstroke)
pb     - pre-bend, in some cases signifies a previous bend being held (bend the string before picking)
pbr    - pre-bend release (bend the string before picking, then release string after picking)
T      - Tap note with pick or a picking hand finger, usually in a quick hammer-on/pull-off section
TR     - trill (10TR12 would indicate to hammer and pull continually between the two specified notes)
trm    - tremolo pick (pick very rapidly)


Above Grid Notation:

.      - palm mute (mute the strings with your picking hand while picking)
\/     - use tremolo bar ("whammy" bar)(either raise or lower the pitch dramatically)
^      - Upstroke (use an up pick-stroke)
sweep  - play strings with a fluid upstroke, downstroke, or a combination (watch for additional directions).
                Notes should ring individually, then mute prior to the next note (this is achieved by lifting
                your fretting finger or using your picking hand palm to mute). Further, if notes are alike (for
                instance: 15 on B, 15 on G, 15 on D), rolling is an option. Rolling is attained by collapsing
                or raising your finger's first joint, achieving a note, then successfully muting while using the
                same finger.
Добавлено: 08.12.2015
Другие материалы по этой песне:

Страница создана 28.02.2012
http://primanota.ru/steel-panther/critter-chords.htm
Привет, Гость.
Предлагаем пройти революционный курс по гитаре.
Подарок от PrimaNota.Ru, забирай!