PrimaNota.ru - самый крупный в мире бесплатный архив песенных текстов, аккордов, табулатур и нот


Steel Panther - Bukkake Tears - таба, видео

Регистрация Запомнить меня
Войти через:  Facebook Google Twitter Vk Yandex Mail.ru

Steel Panther - Bukkake Tears - таба, видео

Печатать
Просмотров: 125
Song: Bukkake Tears
Band: Steel Panther
Album: All You Can Eat
Tabbed by: iloveamanda12

Intro/Pre-verse 1
 
gtr 1 (acoustic)
   ^
e|-3--------3-|
B|-3--------3-|
G|-0--------0-|
D|-2--------2-|
A|-2--------2-|
E|-0--------0-|

gtr 2

e|------------------|
B|------------------|
G|-/7~--------------|
D|--------/7~-5~-2~-|
A|------------------|
E|------------------|

==========

Verse 1 ("You said you wanted to open up the doors...")

e|---------------------------------------------|
B|---------------------------------------------|
G|-----0-----0-----0-----0-----0-----0---------|
D|-2-4---2-4-----0-----0-----0-----0-----------|
A|-------------2-----4-----2-----4-----2/5-4-2-|
E|---------------------------------------------|

=

e|---------------------------------------------------------------|
B|---------------------------------------------------------------|
G|-----0-----0-----0-----0-----0-----0-----0-----0-----0---------|
D|-2-4---2-4---2-4---2-4---2-4-----0-----0-----0-----0-----------|
A|-------------------------------2-----4-----2-----4-----2/5-4-2-|
E|---------------------------------------------------------------|

=

e|-------------------------------|
B|-------------------------------|
G|-----0-----0-----0-----0-----0-|
D|-2-4---2-4---2-4---2-4---2-4---|
A|-------------------------------|
E|-------------------------------|

==========

Pre-chorus 1 ("So I called some of the boys...")

     . . . . . . .           . . . . . . .
e|------------------------------------------------|
B|-----------------3-3--3------------------3-3----|
G|-2---------------0-0--2--2---------------0-0--4-|
D|-2---------------0-0--0--2---------------0-0--4-|
A|-0-0-0-0-0-0-0-0---------0-0-0-0-0-0-0-0------2-|
E|------------------------------------------------|

==========

Chorus 1 ("There was so much love on your face...")
                           .                        
e|-----------3-3-3-2--2--------------------------3-2-0-2--2-3-3-3-2---|
B|------0----3-3-3-3--3---------------------0----3-3-3-3--3-3-3-3-3---|
G|------4----0-0-0-2--2-2----4--4-2---------4----2-2-2-2--2-2-2-2-2---|
D|-2----4----0-0-0-0--0-2----2--2-2----2----4----0-0-0-0--0-0-0-0-0-2-|
A|-2----2----0-0-0-0--0-0--0-0--0-0----2----2----0-0-0-0--0-0-0-0-0-2-|
E|-0----0----3-3-3-3--3----------------0----0----3-3-3-3--3-3-3-3-3-0-|

=========

Pre-verse 2

gtr 1 (acoustic)
   ^
e|-3--------3-|
B|-3--------3-|
G|-0--------0-|
D|-2--------2-|
A|-2--------2-|
E|-0--------0-|

gtr2

e|-----------------------------------------------------------------------------|
B|-/19~----19br~----15-19-15~----12-15-12~----10-8-7----10p7---------7h8p7-----|
G|-----------------------------------------------------------7---7-9-------7---|
D|-------------------------------------------------------------9-------------9~|
A|-----------------------------------------------------------------------------|
E|-----------------------------------------------------------------------------|

==========

Verse 2 ("I said it would turn me on...")

e|---------------------------------------------|
B|---------------------------------------------|
G|-----0-----0-----0-----0-----0-----0---------|
D|-2-4---2-4-----0-----0-----0-----0-----------|
A|-------------2-----4-----2-----4-----2/5-4-2-|
E|---------------------------------------------|

=

e|---------------------------------------------------------------------------------|
B|---------------------------------------------------------------------------------|
G|-----0-----0-----0-----0-----0-----0-----0-----0-----0-----------------0---------|
D|-2-4---2-4---2-4---2-4---2-4-----0-----0-----0-----0-----0---0---0---0-----------|
A|-------------------------------2-----4-----2-----4-----2---2---2---2-----2/5-4-2-|
E|---------------------------------------------------------------------------------|

=

e|-------------------------------|
B|-------------------------------|
G|-----0-----0-----0-----0-----0-|
D|-2-4---2-4---2-4---2-4---2-4---|
A|-------------------------------|
E|-------------------------------|

==========

Pre-chorus 2 ("But as I started letting out the dog in me...")

     . . . . . . .           . . . . . . .
e|------------------------------------------------|
B|-----------------3-3--3------------------3-3----|
G|-2---------------0-0--2--2---------------0-0--4-|
D|-2---------------0-0--0--2---------------0-0--4-|
A|-0-0-0-0-0-0-0-0---------0-0-0-0-0-0-0-0------2-|
E|------------------------------------------------|

==========

Chorus 2 ("There was so much love on your face...")

gtr 1
                           .
e|-----------3-3-3-2--2--------------------------3-2-0-2--2-3-3-3-2-|
B|------0----3-3-3-3--3---------------------0----3-3-3-3--3-3-3-3-3-|
G|------4----0-0-0-2--2-2----4--4-2---------4----2-2-2-2--2-2-2-2-2-|
D|-2----4----0-0-0-0--0-2----2--2-2----2----4----0-0-0-0--0-0-0-0-0-|
A|-2----2----0-0-0-0--0-0--0-0--0-0----2----2----0-0-0-0--0-0-0-0-0-|
E|-0----0----3-3-3-3--3----------------0----0----3-3-3-3--3-3-3-3-3-|

==========

Bridge

e|--------------|
B|------3---3---|
G|-5----2-2-2-2-|
D|-5----0-2-0-2-|
A|-3------0---0-|
E|--------------|

=

                      .                                         .
e|-------------------------------------------------------------------------------------|
B|---------3-3-3-3-----------------------------------3-3-3-3---------------------------|
G|---------2-2-2-2-2----2--2-2-4--4-4-4--4-4---------2-2-2-2-2----2--2-2-4--4-4-4--4-4-|
D|-4-4-4-4-0-0-0-0-2----2--2-2-2--2-2-2--2-2-4-4-4-4-0-0-0-0-2----2--2-2-2--2-2-2--2-2-|
A|-4-4-4-4---------0--0-0--0-0---------------4-4-4-4---------0--0-0--0-0---------------|
E|-2-2-2-2-----------------------------------2-2-2-2-----------------------------------|

=

      .         . .             .         . .
e|-----------------------------------------------------|
B|-3----3--3-3------3-3--3---3----3--3-3------3-3--3---|
G|-2----2--2-2------2-2--2-2-2----2--2-2------2-2--2-2-|
D|-0--0-0--0-0--0-0-0-0--0-2-0--0-0--0-0--0-0-0-0--0-2-|
A|-------------------------0-------------------------0-|
E|-----------------------------------------------------|

==========

Solo Rhythm

gtr 1 (rhythm)
                     .                             .
e|----------------------------------------------------------|
B|------0----3------------------------0----3----------------|
G|------4----0----2----4--4-2---------4----0----2----4--4-2-|
D|-2----4----0----2----2--2-2----2----4----0----2----2--2-2-|
A|-2----2---------0--0-0--0-0----2----2---------0--0-0--0-0-|
E|-0----0------------------------0----0---------------------|

=

gtr 1 (cont'd)
      .   .   .   .   .         .   .   .   .   .
e|----------------------------------------------------|
B|----------------------------------------------------|
G|-5----5---5---5---5---5-7--5----5---5---5---5---5-7-|
D|-5----5---5---5---5---5-7--5----5---5---5---5---5-7-|
A|-3--3-3-3-3-3-3-3-3-3-3-5--3--3-3-3-3-3-3-3-3-3-3-5-|
E|----------------------------------------------------|

======

Solo

gtr 2

e|-17b--17br16-14b~--14-16-17-15b----15-14\12-14-------|
B|-----------------------------------------------15-14~|
G|-----------------------------------------------------|
D|-----------------------------------------------------|
A|-----------------------------------------------------|
E|-----------------------------------------------------|

=

gtr 2 (cont'd)

e|-------12h16p12----------12h16p12\9-12-9----9---------------------------------------------------|
B|-12h16----------------16-----------------12---12-9-12-9----9------------------------------------|
G|----------------16p13-----------------------------------11---11-9-11-9----9---------------------|
D|-----------------------------------------------------------------------11---11-9-11-9----9------|
A|--------------------------------------------------------------------------------------11---11-9~|
E|------------------------------------------------------------------------------------------------|

=

gtr 2 (cont'd)

e|---------------------------------------------------------|
B|-15b~----12----------------------------------------------|
G|------14----12-11----12br-11h12p11-----------------------|
D|------------------14---------------14~--14-12------------|
A|----------------------------------------------14\12-10br-|
E|---------------------------------------------------------|

=

gtr 2 (cont'd)
         sweep       ^  sweep       ^
e|-------------------------------16-19b--17h19p17\12-15----12--------|
B|----------------15-18-------18------------------------15----15b-15-|
G|-------------16-------16h19----------------------------------------|
D|-\17~--14h17-------------------------------------------------------|
A|-------------------------------------------------------------------|
E|-------------------------------------------------------------------|

=

gtr 2 (cont'd)

e|-14br--------14-12-------------------------------------------------------|
B|------15~----------15-13-12----13-12-------------------------------------|
G|----------------------------14-------14-12-11------------------------[7]-|
D|----------------------------------------------14-12-11-----------[7]-----|
A|-------------------------------------------------------14-12~------------|
E|-------------------------------------------------------------------------|

==========

Pre-chorus 3 ("There was so much love on your face...")

Don't get confused by the bass-line in this section. It can drown out the acoustic very easily.
e|-----0-------0-------0-------0-----------------------------------------|
B|-------0-------0-------4-------4-------4-----4-----4-----4-----4-----4-|
G|---4-------4-------4-------4-----4---4-----4-----4-----4-----4-----4---|
D|-2-------2-------2-------2---------4-----2-----0-----------------------|
A|-----------------------------------------------------4-----2-----0-----|
E|-----------------------------------------------------------------------|

=

e|-----0-------0-------0-------0-------------------------|
B|-------0-------0-------4-------4-------4-----4-----4---|
G|---4-------4-------4-------4-----4---4-----4-----4---2-|
D|-2-------2-------2-------2---------0-----------------2-|
A|----------------------------------------4-----2------0-|
E|-------------------------------------------------------|

==========

Chorus 3 ("There was so much love on your face...")

                     .
e|-----------------------------------------3-2-0-2--2-3-3-3-2-|
B|------0----3--3---------------------0----3-3-3-3--3-3-3-3-3-|
G|------4----0--2-2----4--4-2---------4----2-2-2-2--2-2-2-2-2-|
D|-2----4----0--0-2----2--2-2----2----4----0-0-0-0--0-0-0-0-0-|
A|-2----2---------0--0-0--0-0----2----2----0-0-0-0--0-0-0-0-0-|
E|-0----0------------------------0----0----3-3-3-3--3-3-3-3-3-|

==========

First outro section

gtr 1
                     .                             .
e|----------------------------------------------------------|
B|------0----3------------------------0----3----------------|
G|------4----0----2----4--4-2---------4----0----2----4--4-2-|
D|-2----4----0----2----2--2-2----2----4----0----2----2--2-2-|
A|-2----2---------0--0-0--0-0----2----2---------0--0-0--0-0-|
E|-0----0------------------------0----0---------------------|

gtr 2

e|-------17br-17-16---------------|
B|----18------------17-17br-------|
G|-17-----------------------16----|
D|-----------------------------16~|
A|--------------------------------|
E|--------------------------------|

=

gtr 2 (cont'd)

e|----------------------------------------------------------------------------------|
B|-15-14-15-14-12-14-12----12-------------------------------------------------------|
G|----------------------14----14-12-14-12-11-12-11----11----------------------------|
D|-------------------------------------------------14----14-12-14-12-11-12-11----11-|
A|----------------------------------------------------------------------------14----|
E|----------------------------------------------------------------------------------|

=

gtr 2 (cont'd)

e|----------------------------------------|
B|----------------------------------------|
G|----------------------------------------|
D|----------------------11-12-14-12-11----|
A|-14-12-14-12-10-12-14----------------14~|
E|----------------------------------------|

=

gtr 2 (cont'd)

e|--------------------------------------|
B|----------------------------15-17-15b~|
G|-12h14h15p14p12-14b-12---16-----------|
D|--------------------------------------|
A|--------------------------------------|
E|--------------------------------------|

=

gtr 2 (cont'd)

e|----14----16----17----16----14----16----14----14br~|
B|-------17----17----17----17----17----17----17------|
G|-12------------------------------------------------|
D|---------------------------------------------------|
A|---------------------------------------------------|
E|---------------------------------------------------|

=

gtr 2 (cont'd)

e|-14br-14p12-------------------------------------------------|
B|------------15-12-14----12----------------12----------------|
G|---------------------14----12-14----12-------12b------------|
D|---------------------------------14----14--------14-12-14~\-|
A|------------------------------------------------------------|
E|------------------------------------------------------------|

==========

Second outro section ("There was so much love, so much love")

gtr 1
                     .
e|------2-----------------------------2---------------------|
B|------3-----------------------------3---------------------|
G|------2---------2----4--4-2---------2---------2--2-2--2-2-|
D|-2----0----5----2----2--2-2----2----0----5----2--2-2--2-2-|
A|-2----0----5----0--0-0--0-0----2----0----5----0--0-0--0-0-|
E|-0----3----3-------------------0----3----3----------------|

gtr 2

e|----------------------------------------------------------|
B|----------------------------------------------------------|
G|----------------------------------------------------------|
D|----------------------------------------------------------|
A|-7~-------------------------------------------------------|
E|-------2~-------------------------------------------------|

==========

Final outro section

gtr 1
                     .                             .
e|----------------------------------------------------------|
B|------0----3------------------------0----3----------------|
G|------4----0----2----4--4-2---------4----0----2----4--4-2-|
D|-2----4----0----2----2--2-2----2----4----0----2----2--2-2-|
A|-2----2---------0--0-0--0-0----2----2---------0--0-0--0-0-|
E|-0----0------------------------0----0---------------------|

gtr 2

e|---------------------------------------------------------|
B|-17~----17/21-18b~----19p16\12-14b*-14-12-14br-14p12-14b~|
G|---------------------------------------------------------|
D|---------------------------------------------------------|
A|---------------------------------------------------------|
E|---------------------------------------------------------|

=

gtr 2 (cont'd)
                                                            (starts to fade)
e|----------------------------------------------------------------------------|
B|-17~----17b*-19~--17h19p17\12-14--14b*-14-12-14br-14~--14-12h14p12\8---8b---|
G|---------------------------------------------------------------------9----9~|
D|----------------------------------------------------------------------------|
A|----------------------------------------------------------------------------|
E|----------------------------------------------------------------------------|

=

e|-------------------------------------------------|
B|-------------------------------------------------|
G|-9~--9-9-9-9\4\6\4~--4-6-6b-6b-6b-6brp4--2h4p2-2~|
D|-------------------------------------------------|
A|-------------------------------------------------|
E|-------------------------------------------------|

=

gtr 2 (cont'd)
         trm'''''''''''
e|------------5-7-10-12-12~-----------------------------------------|
B|-5~----7-8--------------------12~----12-12-12/7/5-7/5/3~--3/2-2-2-|
G|------------------------------------------------------------------|
D|------------------------------------------------------------------|
A|------------------------------------------------------------------|
E|------------------------------------------------------------------|

=

gtr 2
         T        T        T        T        T        T
e|----------------------------------------------------------|
B|-5h7p5-12-5h7p5-12-5h7p5-12-5p7p5-12-5h7p5-12-5h7p5-12-10~|
G|----------------------------------------------------------|
D|----------------------------------------------------------|
A|----------------------------------------------------------|
E|----------------------------------------------------------|

==========================================================================================================

LEGEND
------

Layout Notation:

====== - Section, such as Bridge or solo, closed (after correct number of plays, move to the next section)
=      - Section, such as Bridge or solo, still active: after correct number of plays, move to next bar.
x(#)   - Repeat as indicated (x3 indicates repeating the riff twice more, etc.)

Grid Notation:

~      - vibrato (bend the string and release rapidly)
*      - deaden note (stop notes from ringing)
#      - pick slide (#\ inidcates sliding lower in pitch, #/ indicates higher in pitch)
X      - dead string (Mute string with your fretting hand)
{}     - pinch harmonic (bring the picking thumb across the string after picking note)
[]     - natural harmonic (lightly rest fretting finger on string, then pick)

/      - slide up (higher in pitch)(2/4 indicates fretting the 2nd fret, then sliding to the 4th without
                a 2nd pick-stroke)
\      - slide down (lower in pitch)(4/2 indicates fretting the 4th fret, then sliding to the 2nd without
                a 2nd pick-stroke)
b      - bend ("16b" would indicate bending the 16th fret)
r      - release bend ("16br" would indicate bending the 16th fret up, then releasing back to neutral position)
br     - bend, then release
brp    - bend, release, then pull; usually in a fluid motion
h      - hammer-on to indicated fret (0h2 indicates picking open string, then fretting the 2nd fret without
                a second pick-stroke)
p      - pull-off to indicated fret (12p10 indicates picking the twelfth fret, then lifting your finger to
                a pre-fretted 10th fret without a second pickstroke)
pb     - pre-bend, in some cases signifies a previous bend being held (bend the string before picking)
pbr    - pre-bend release (bend the string before picking, then release string after picking)
T      - Tap note with pick or a picking hand finger, usually in a quick hammer-on/pull-off section
TR     - trill (10TR12 would indicate to hammer and pull continually between the two specified notes)
trm    - tremolo pick (pick very rapidly)


Above Grid Notation:

.      - palm mute (mute the strings with your picking hand while picking)
\/     - use tremolo bar ("whammy" bar)(either raise or lower the pitch dramatically)
^      - Upstroke (use an up pick-stroke)
Добавлено: 27.07.2015
Вам также может быть интересно:
Другие материалы по этой песне:
  • Аккорды и текст

Страница создана 27.07.2015
http://primanota.ru/steel-panther/bukkake-tears-chords.htm
Привет, Гость.
Предлагаем пройти революционный курс по гитаре.
Подарок от PrimaNota.Ru, забирай!