PrimaNota.ru - самый крупный в мире бесплатный архив песенных текстов, аккордов, табулатур и нот


Steel Attack - Heading For The Lair - текст песни, таба, видео

Регистрация Запомнить меня
Войти через:  Facebook Google Twitter Vk Yandex Mail.ru

Steel Attack - Heading For The Lair - текст песни, таба, видео

Печатать
Просмотров: 162
Новый альбом группы 'Черный Кузнец' по культовому сериалу 'Сверхъестественное'!
Artist: Steel Attack
Title:  Heading For The Lair
Album:  Where Mankind Fails
Transcribed by Roger H. Beck (July 15, 2001)
e-mail address: roger_h_beck@hotmail.com

Standard tuning


Theme 1
Main Riff a (6x)

e(---------------------------------------|
B(-5-000-7-000-8-000-12-000-10-000-8-000-|
G(---------------------------------------|
D(---------------------------------------|
A(---------------------------------------|
E(---------------------------------------|

   1st/2nd/3rd/5th ending                   4th/6th ending
e(----------------------------------------)-------------------------)
B(-5-000-8-000-5-000-13-000-12-000-15-000-)-5-000-7-000-8-000-7-000-)
G(----------------------------------------)-------------------------)
D(----------------------------------------)-------------------------)
A(----------------------------------------)-------------------------)
E(----------------------------------------)-------------------------)


Theme 2
Main Riff b (2x)

e(------------------------------------------|
B(---12-000-10-000-12-000-77-88-55-77-33-55-|
G(------------------------------------------|
D(------------------------------------------|
A(------------------------------------------|
E(------------------------------------------|

e(---------------------------------------------------------)
B(---12-000-10-000-12-000-1717-1515-1313-1515-1313-/1010---)
G(---------------------------------------------------------)
D(---------------------------------------------------------)
A(---------------------------------------------------------)
E(---------------------------------------------------------)


Verse 1
Riff 1 (4x)

e(------------------------------------------)
B(------------------------------------------)
G(------------------------------------------)
D(-----5---5-----9----9----2---2----4---4---)
A(---7---7---/10---10---/3---3---/5---5-----)
E(------------------------------------------)
P.M. . . . .   . .  . .  . . . .  . . . .


Bridge 1
Riff 2 (4x)

e(---------------------------------------|
B(---------------------------------------|
G(---------------------------------------|
D(-------12-----11-----12-----11-----12/-|
A(-------10------9-----10------9-----10/-|
E(---0-0----0-0----0-0----0-0----0-0-----|
P.M. . .    . .    . .    . .    . .

     1st/3rd ending                      2nd/4th ending
e(--------------------------------------)---------------)
B(--------------------------------------)---------------)
G(--------------------------------------)----5=---/7=---)
D(--------------------------------------)---/5=---/7=---)
A(--------------------------------------)---/3=---/5=---)
E(---0-000-000-000-000-000-000-000-00---)---------------)
P.M. . ... ... ... ... ... ... ... ..


Verse 2 - Riff 1 (4x)


Pre-Chorus 1
Riff 3

e(---------------------------------------------------------------------)
B(---------------------------------------------------------------------)
G(---5=--------------5=------------------------------------------------)
D(---5=---5-4-2-2=---5=---5-4-2-2=---2-2-2-2-2-2-2-2-2-2-2-2-2-2-2-2---)
A(---3=---7-5-3-2=---3=---7-5-3-2=---2-2-2-2-2-2-2-2-2-2-2-2-2-2-2-2---)
E(--------------0=--------------0=---0-0-0-0-0-0-0-0-0-0-0-0-0-0-0-0---)
P.M.                                 . . . . . . . . . . . . . . . .


Chorus 1
Riff 4 (2x)
                                                   1st end.   2nd ending
e(------------------------------------------------(---------)-------------)
B(------------------------------------------------(---------)-------------)
G(---9---7---5=-----5---7---9=-----9=----------7=-(-/9=-----)-/9=---------)
D(---9---7---5=-----5---7---9=-----9=--5=------7=-(-/9=-----)-/9=-5-4-2---)
A(---7---5---3=-----3---5---7=-----7=--5=------5=-(-/7=-----)-/7=-7-5-3---)
E(-----0---0----0-0---0---0----0-0-----3=--0-0----(-----0-0-)-------------)
P.M.   .   .    . .   .   .    . .         . .          . .

Riff 5 (2x)

e(-----------------------------------------)
B(-----------------------------------------)
G(-----------------------------------------)
D(---55555555-55555555-55555555-55555555---)
A(---77777777-77777777-77777777-77777777---)
E(-----------------------------------------)
P.M. ........ ........ ........ ........


Theme 3
Main Riff c (4x)

e(---------------------------------------------)
B(---8-0000000-5-0000000-7-0000000-3-0000000---)
G(---------------------------------------------)
D(---------------------------------------------)
A(---------------------------------------------)
E(---------------------------------------------)


Theme 4
Main Riff d (3x)

e(-----------------------------------------------------)
B(---8-000-5-000-7-000-3-000-8-000-5-000-7-000-3-000---)
G(-----------------------------------------------------)
D(-----------------------------------------------------)
A(-----------------------------------------------------)
E(-----------------------------------------------------)

Guitar 2
e(---------------------------------------------------------)
B(---12-000-8-000-10-000-7-000-12-000-8-000-10-000-7-000---)
G(---------------------------------------------------------)
D(---------------------------------------------------------)
A(---------------------------------------------------------)
E(---------------------------------------------------------)


e(------------)
B(------------)
G(------------)
D(---2=---2---)
A(---2=---2---)
E(---0=---0---)


Guitar Solo
Riff 6 (2x)

e(---------------------------------------------------------------------------)
B(---------------------------------------------------------------------------)
G(--------------------5-----------------7-----------------5---------7--------)
D(---2----------------5-----------------7-----------------5---------7--------)
A(---2----------------3-33333333333333-/5-55555555555555-/3-333333-/5-555555-)
E(---0-00000000000000--------------------------------------------------------)
P.M.   ..............   ..............    ..............    ......    ......


Interlude
Riff 7 (8x)

e(-------------------------------------------------------------------------)
B(-------------------------------------------------------------------------)
G(-9-0-9-0-9-0-9-0-9-0-9-0-9-0-9-0-11-0-11-0-11-0-11-0-12-0-12-0-12-0-12-0-)
D(-------------------------------------------------------------------------)
A(-------------------------------------------------------------------------)
E(-------------------------------------------------------------------------)

Guitar 2 (from 5th to 8th time only)
e(-------------------------------------------------------------------------)
B(-8-0-8-0-8-0-8-0-8-0-8-0-8-0-8-0-10-0-10-0-10-0-10-0-12-0-12-0-12-0-12-0-)
G(-------------------------------------------------------------------------)
D(-------------------------------------------------------------------------)
A(-------------------------------------------------------------------------)
E(-------------------------------------------------------------------------)


Bridge 2     - Riff 2 (4x)
Verse 3      - Riff 1 (4x)
Pre-Chorus 2 - Riff 3
Chorus 2     - Riff 4 (2x)


Riff 4 addition 1

e(-----------------)
B(-----------------)
G(-----------------)
D(---5-4-2-5-4-2---)
A(---7-5-3-7-5-3---)
E(-----------------)


Chorus 3 - Riff 4 (2x)

Riff 4 addition 2

e(-----------------------)
B(-----------------------)
G(-----------------------)
D(----9-7-5-5-4-2-2===---)
A(---10-9-7-7-5-3-2===---)
E(----------------0===---)


Symbol explanation:


P.M.  Palm Mute (notes marked with dot)
/     slide
=     sustained


Note: If you find any mistakes please send e-mail
Добавлено: 23.06.2012
Другие материалы по этой песне:

Страница создана 28.02.2012
http://primanota.ru/steel-attack/heading-for-the-lair-chords.htm
Привет, Гость.
Предлагаем пройти революционный курс по гитаре.
Подарок от PrimaNota.Ru, забирай!