PrimaNota.ru - самый крупный в мире бесплатный архив песенных текстов, аккордов, табулатур и нот


Steel Attack - Guardians - текст песни, таба, видео

Регистрация Запомнить меня
Войти через:  Facebook Google Twitter Vk Yandex Mail.ru

Steel Attack - Guardians - текст песни, таба, видео

Печатать
Просмотров: 111
Artist: Steel Attack
Title:  Guardians
Album:  Fall Into Madness
Transcribed by Roger H. Beck (July 11, 2001)
e-mail address: roger_h_beck@hotmail.com

Standard tuning


Intro
Riff 1 (4x) (P.M. not throughout on 2nd and 4th time)

e(-----------------------------------------------------------------------)
B(-----------------------------------------------------------------------)
G(---------------1-----1-3---1-3-5-1-3---1-------------------------------)
D(---1-3-5-1-3-5-3-3-5-3-5-5-3-5-6-3-5-5-3-3-5-1-3---1-------------------)
A(---3-5-6-3-5-6---5-6-----6-----------6---5-6-3-5-5-3-3-5-1-3-----1-----)
E(-------------------------------------------------6---4-6-3-4-1¦4-3-1¦4-)
P.M. . . . . . . . . . . . . . . . . . . . . . . . . . . . . . . . . . .


Theme 1
Main Riff (4x)

e(----------------------------------------------------|
B(----------------------------------------------------|
G(---5-000-8-000-7-000-3-000-5-000-8-000-10-000-7-000-|
D(----------------------------------------------------|
A(----------------------------------------------------|
E(----------------------------------------------------|
P.M.   ...   ...   ...   ...   ...   ...    ...   ...

e(-------------------------------------------)
B(----------------------------8--6--4--/3=---)
G(---5-000-8-000-7-000-3-000--8--7--5--/3=---)
D(-------------------------------------------)
A(-------------------------------------------)
E(-------------------------------------------)
P.M.   ...   ...   ...   ...

Guitar 2 (3rd and 4th time only)
e(--------------------------------------------------------|
B(--------------------------------------------------------|
G(---8-000-12-000-10-000-7-000-8-000-12-000-13-000-10-000-|
D(--------------------------------------------------------|
A(--------------------------------------------------------|
E(--------------------------------------------------------|
P.M.   ...    ...    ...   ...   ...    ...    ...    ...

e(---------------------------------------------)
B(------------------------------8--6--4--/3=---)
G(---8-000-12-000-10-000-7-000--8--7--5--/3=---)
D(---------------------------------------------)
A(---------------------------------------------)
E(---------------------------------------------)
P.M.   ...    ...    ...   ...


Main Riff addition

e(--------------------------------------------------)
B(-------8-6=--------6-8=---------------------------)
G(---5=--------8-7=--------5=--8-7=--3-----3-5===---)
D(-------------------------------------5=-----------)
A(--------------------------------------------------)
E(--------------------------------------------------)


Verse 1
Riff 2 (2x)

e(-------------------------------------------------------------------)
B(-------------------------------------------------------------------)
G(--------------------------------------------------------------3=---)
D(---5----5----5----5----5----5----5-----55555555-6666--8-8-8-8-3=---)
A(---3-33-3-33-3-33-3-33-3-33-3-33-3-356-66666666-8888-10101010-1=---)
E(-------------------------------------------------------------------)
P.M.   ..   ..   ..   ..   ..   ..   ... ........ ....  . . . .


Pre-Chorus 1
Riff 3
                                                     *
e(-------------------------------------------------------------------------)
B(---------------------------------------------------------------------1-3-)
G(------5=-/3=-----------------------8--------8---------3=-------0-1-3-1-3-)
D(---6=-5=-/3=-5=-/6--------6--------8--------8---------3=-0-1-3-1-3-5-----)
A(---6=-3=-/1=-5=-/6--------6--------6-666666-6-666666-/1=-1-3-5-----------)
E(---4=--------3=-/4-444444-4-444444---------------------------------------)
P.M.                 ......   ......   ......   ......     . . . . . . . .


Verse 2      - Riff 2 (2x)
Pre-Chorus 2 - Riff 3


Bridge 1
Riff 4

e(--------------------------------------------------------|
B(--------------------------------------------------------|
G(--------------3=-------------------------------------3=-|
D(-----------6--3=---------6--5-3-1=-5-3-1=---------6--3=-|
A(-----------6--1=---------6--6-5-3=-6-5-3=---------6--1=-|
E(---4-4-4-4-4-----4-4-4-4-4----------------4-4-4-4-4-----|
P.M. . . . .       . . . .    . .    . .    . . . .

e(------------------------------------)
B(------------------------------------)
G(---/8=--3-3-3-3-3-3-3-3-3-3-3-3-3---)
D(---/8=--3-3-3-3-3-3-3-3-3-3-3-3-3---)
A(---/6=--1-1-1-1-1-1-1-1-1-1-1-1-1---)
E(------------------------------------)
P.M.      . . . . . . . . . . . .


Chorus 1
Riff 5

e(-----------------------------------------------------)
B(-----------------------------------------------------)
G(---/8-/3-/5=-----------8-/3-/5=----------------------)
D(---/8-/3-/5=--6=--/8=--8-/3-/5=----------------------)
A(---/6-/1-/3=--6=--/8=--6-/1-/3=----------------------)
E(--------------4=--/6=------------44444444-66666666---)
P.M.                               ........ ........


Theme 2      - Main Riff (2x; guitars 1 and 2)
Verse 3      - Riff 2    (2x)
Pre-Chorus 3 - Riff 3    (2x; 2nd time until *)

  alt. ending
e(------------)
B(------------)
G(----3=--3---)
D(----3=--3---)
A(---/1=--1---)
E(------------)


Chorus 2 - Riff 5


Guitar Solo
Riff 6 (2x)

e(--------------------------------------------------------------------------)
B(--------------------------------------------------------------------------)
G(---5--------5--------5--------5-------------------------------------------)
D(---5--------5--------5--------5--------6-----------------8----------------)
A(---3-333333-3-333333-3-333333-3-335566-6-----------------8----------------)
E(---------------------------------------4-44444444444444-/6-66666666666666-)
P.M.   ......   ......   ......   ......   ..............    ..............


Riff 5


Interlude
Riff 7 (2x)

e(---------------------------------------------|
B(---444444-88-6666-33----444444-88-6666-33----|
G(---555555-88-7777-33-33-555555-88-7777-33-33-|
D(---------------------55-------------------55-|
A(---------------------------------------------|
E(---------------------------------------------|

e(-----------------------------------------------)
B(---444444-88-6666-33----8888-6666-4444-/3333---)
G(---555555-88-7777-33-33-8888-7777-5555-/3333---)
D(---------------------55------------------------)
A(-----------------------------------------------)
E(-----------------------------------------------)


Bridge 2
Riff 8 (4x)

e(------------------------------)
B(------------------------------)
G(-------5-----5----------------)
D(-------5-----5-----6------8---)
A(---3-3-3-3-3-3-----6------8---)
E(---------------4-4-4-/6-6-6---)
P.M. . .   . .   . .    . .


Chorus 3 - Riff 5


Coda
Riff 9 (2x)

e(-------------------------------------------|
B(---4444-8888-6666-3333-4444----------44-66-|
G(---5555-8888-7777-3333-5555-33333333-55-77-|
D(----------------------------55555555-------|
A(-------------------------------------------|
E(-------------------------------------------|

     1st ending
e(---------------------------------------)
B(---44444444-6666-8888-6666666666666666-)
G(---55555555-7777-8888-7777777777777777-)
D(---------------------------------------)
A(---------------------------------------)
E(---------------------------------------)

     2nd ending
e(------------------------------)
B(---4=--8=--6=--3=--8===-------)
G(---5=--8=--7=--3=--8===---8---)
D(--------------------------8---)
A(--------------------------6---)
E(------------------------------)


Symbol explanation:


P.M.  Palm Mute (notes marked with dot)
/     slide
=     sustained

Note: If you find any mistakes please send e-mail
Добавлено: 19.04.2012
Другие материалы по этой песне:

Страница создана 22.03.2012
http://primanota.ru/steel-attack/guardians-chords.htm
Привет, Гость.
Предлагаем пройти революционный курс по гитаре.
Подарок от PrimaNota.Ru, забирай!