PrimaNota.ru - самый крупный в мире бесплатный архив песенных текстов, аккордов, табулатур и нот


Steel Attack - Fireballs - текст песни, таба, видео

Регистрация Запомнить меня
Войти через:  Facebook Google Twitter Vk Yandex Mail.ru

Steel Attack - Fireballs - текст песни, таба, видео

Печатать
Просмотров: 142
Новый альбом группы 'Черный Кузнец' по культовому сериалу 'Сверхъестественное'!
Artist: Steel Attack
Title:  Fireballs
Album:  Fall Into Madness
Transcribed by Roger H. Beck (July 12, 2001)
e-mail address: roger_h_beck@hotmail.com

Standard tuning


Intro
Riff 1 (2x)

e(----------------------------------------)
B(----------------------------------------)
G(---------7=-------------------7=--------)
D(---------7=-7-5=-3------------7=-7-5=---)
A(---5-5-5-5=-8-7=-5-7-3-/5-5-5-5=-8-7=---)
E(-------------------8-5------------------)
P.M. . . .                . . .


Theme 1
Main Riff (2x)

e(---------------------------------------------------------------|
B(---------------------------------------------------------------|
G(---10------12------14------12------14----12----10------12------|
D(---12-0000-14-0000-15-0000-14-0000-15-00-14-00-12-0000-14-0000-|
A(---------------------------------------------------------------|
E(---------------------------------------------------------------|
P.M.    ....    ....    ....    ....    ..    ..    ....    ....

                                   Main Riff addition
e(-------------------------------)---------------------------------------)
B(-------------------------------)---------------------------------------)
G(---14------12------14----15----)----------7--9-7-7---5-3-2---2---------)
D(---15-0000-14-0000-15-00-17-00-)-3=-5-7-7-9-10-9-9---7-5-3-5-3-5-3-2-3-)
A(-------------------------------)-5=-7-8-8------------------7---7-5-3-5-)
E(-------------------------------)---------------------------------------)
P.M.    ....    ....    ..    ..                       . . . . . . . .


Riff 2a

e(-----------------------------------------)
B(-----------------------------------------)
G(---7-------------------------------------)
D(---7-------------------------------------)
A(---5-555555-55555555-55555555-55555555---)
E(-----------------------------------------)
P.M.   ...... ........ ........ ........


Verse 1
Riff 2b (2x)

e(-----------------------------------------------------------------------|
B(-----------------------------------------------------------------------|
G(---7---------------------------------------------5=-/7-----------------|
D(---7---------------------------------------------5=-/7-----------------|
A(---5-555555-55555555-55555555-55555555-55555555-/3=-/5-555555-55555555-|
E(-----------------------------------------------------------------------|
P.M.   ...... ........ ........ ........ ........        ...... ........

e(-------------------------------------------------------------------------|
B(-------------------------------------------------------------------------|
G(---7---------------------------------------------3-/5-/7-----------------|
D(---7---------------------------------------------3-/5-/7-----------------|
A(---5-555555-55555555-55555555-55555555-55555555-/1-/3-/5-555555-55555555-|
E(-------------------------------------------------------------------------|
P.M.   ...... ........ ........ ........ ........          ...... ........

     1st ending               2nd ending
e(------------------------)----------------)
B(------------------------)----------------)
G(---/7-------------------)---/7===--------)
D(---/7-------------------)---/7===--------)
A(---/5-555555-55555555---)---/5===--------)
E(------------------------)----------------)
P.M.    ...... ........


Chorus 1
Riff 3 (2x)

e(--------------------------------------------------------------|
B(--------------------------------------------------------------|
G(----------22-00000000-00000000-5555-3333-2222--0000-2222-3333-|
D(---3------33-22222222-22222222-7777-5555-3333-/2222-3333-5555-|
A(---1-1111-----------------------------------------------------|
E(--------------------------------------------------------------|
P.M.   .... .. ........ ........ .... .... ....  .... .... ....

     1st ending
e(-----------------------------------------------------------------)
B(-----------------------------------------------------------------)
G(----------22-00000000-00000000----------------------00-22-33--55-)
D(---3------33-22222222-22222222-------------00-22-33-22-33-55-/77-)
A(---1-1111----------------------00000000-00-11-33-55--------------)
E(-----------------------------------------------------------------)
P.M.   .... .. ........ ........ ........ .. .. .. .. .. .. ..  ..

     2nd ending
e(--------------------------------)
B(--------------------------------)
G(--------------------------------)
D(---3-------------5--------------)
A(---1-1111111111-/3-3333333333---)
E(--------------------------------)
P.M.   ..........    ..........


Riff 2a variation

e(-----------------------------------------------------------------)-----|
B(-----------------------------------------------------6-5-6-8-6-5-)-6---|
G(-----------------------------------------------------7-5-7-9-7-5-)-7---|
D(-----------------------------------------------------------------)-----|
A(---5-555-555-555-555-555-555-555-555-555-555-555-555-------------)-----|
E(-----------------------------------------------------------------)-----|
P.M. . ... ... ... ... ... ... ... ... ... ... ... ... . . . . . .   .


Verse 2
Riff 2b variation (2x)

e(--------------------------------------------------------------------)
B(--------------------------------------------------------------------)
G(---7----------------------------------------5=-5=-/7----------------)
D(---7----------------------------------------5=-5=-/7----------------)
A(---5-555-555-555-555-555-555-555-555-555-55/3=-3=-/5-555-555-555-55-)
E(--------------------------------------------------------------------)
P.M. . ... ... ... ... ... ... ... ... ... ..          ... ... ... ..

     1st ending
e(--------------------------------------------------------------------)
B(--------------------------------------------------------------------)
G(---7----------------------------------------3=-/5=-/7-----5-3-2-----)
D(---7----------------------------------------3=-/5=-/7-----7-5-3-5-2-)
A(---5-555-555-555-555-555-555-555-555-555-55/1=-/3=-/5-555-------7-3-)
E(--------------------------------------------------------------------)
P.M.   ... ... ... ... ... ... ... ... ... ..           ... . . . . .

     2nd ending
e(-----------------------------------------------------------)
B(-----------------------------------------------------------)
G(---7----------------------------------------3=-/5=-/7===---)
D(---7----------------------------------------3=-/5=-/7===---)
A(---5-555-555-555-555-555-555-555-555-555-55/1=-/3=-/5===---)
E(-----------------------------------------------------------)
P.M.   ... ... ... ... ... ... ... ... ... ..


Chorus 2      - Riff 3            (2x)
Intro Reprise - Riff 1            (2x)
Theme 2       - Main Riff         (2x)
Verse 3       - Riff 2b variation (2x)
Chorus 3      - Riff 3            (2x)


Interlude 1
Riff 4 (4x)

e(------------------------------------------)
B(------10-11-8=---------8=----10-11-8===---)
G(---7=----------10-9-10----7=--------------)
D(------------------------------------------)
A(------------------------------------------)
E(------------------------------------------)

Guitar 2 (3rd and 4th time only)
e(------------------------------------------------)
B(-------13-15-11=----------11=-----13-15-11===---)
G(---10=-----------14-12-14-----10=---------------)
D(------------------------------------------------)
A(------------------------------------------------)
E(------------------------------------------------)


Guitar Solo
Riff 5 (4x)

e(-------------------------------------------------------------------)
B(-------------------------------------------------------------------)
G(---7---------------------5-5-5-/3-/5---------------------------2-3-)
D(---7-----8----8----7-----5-5-5-/3-/5-555-555-555-555-5-3-2-3-5-----)
A(---5-555-5-55-5-55-5-555-------------------------------------------)
E(-------------------------------------------------------------------)
P.M.   ...   ..   ..   ...             ... ... ... ... . . . . . . .


Interlude 2 - Riff 4 (2x; Guitars 1 and 2)


Bridge
Riff 6 (4x)
                                           Guitar 2
e(----------------------------------) e(----------------)
B(----------------------------------) B(----------------)
G(---7-------7-/9-/10-------10-10---) G(----------------)
D(---7-------7-/9-/10-------10-10---) D(----------------)
A(---5-5-5-5-5-/7--/8-8-8-8--8--8---) A(---5=---7=-8=---)
E(----------------------------------) E(----------------)
P.M.   . . .          . . .


Chorus 4 - Riff 3 (4x)


Outro
Riff 1 variation

e(----------------------)
B(----------------------)
G(----------7=----------)
D(----------7=-7-5===---)
A(---/5-5-5-5=-8-7===---)
E(----------------------)
P.M.  . . .


Symbol explanation:


P.M.  Palm Mute (notes marked with dot)
/     slide
=     sustained


Note: If you find any mistakes please send e-mail
Добавлено: 14.06.2012
Другие материалы по этой песне:
  • Аккорды и текст

Страница создана 12.03.2012
http://primanota.ru/steel-attack/fireballs-chords.htm
Привет, Гость.
Предлагаем пройти революционный курс по гитаре.
Подарок от PrimaNota.Ru, забирай!