PrimaNota.ru - самый крупный в мире бесплатный архив песенных текстов, аккордов, табулатур и нот


Steak Number Eight - Pyromaniac - бас-таба, видео

Регистрация Запомнить меня
Войти через:  Facebook Google Twitter Vk Yandex Mail.ru

Steak Number Eight - Pyromaniac - бас-таба, видео

Печатать
Просмотров: 69
First tab ever, hope you enjoy playing it!
Might be some slight differences in it but you can figure it out by listening to the song!

h = hammer on
s = slide

INTRO RIFF:
-----------------------------------------------------------------------------|
-----------------------------------------------------------------------------|
-----------------------------------------------------------------------------|
0-let-ring-------2h4-444---8s7-444---2h4-44---9999-7755-444-2h4-444----------|


VERSE shout
-----------------------------------------------------------------------------|
--------4-2-4-2-5---4-5-4-5-4-5-4---4-2-4-4-2---4-2-4-2-4-2------------------|
-----------------------------------------------------------------------------|
-----------------------------------------------------------------------------|


CHORUS
-----------------------------------------------------------------------------|
-----------------------------------------------------------------------------|
-----------------------------------------------------------------------------|
--------4-2-4-2-5---4-5-4-5-4-5-4---4-2-4-4-2---4-2-4-2-4-2------4-let-ring--|


VERSE quiet
------------------------------------------------7----7-----------------------|
--------------7----7----7----7-------7----7---9----9-------------------------|
-------------9----9----9----9-------9----9-----------------------------------|
-----------------------------------------------------------------------------|


PRE-CHORUS (variation with some higher notes, like the guitars.. figure it out..)
------------------------------------------------/----------------------------|
------------------------------------------------/----------------------------|
-----------------22222222-----------------------/----------------------------|
-------------------------------------4444444----/--LAST TIME:-Land on--666---|


CHORUS
-----------------------------------------------------------------------------|
-----------------------------------------------------------------------------|
-----------------------------------------------------------------------------|
-------2h4-444---8s7-444---2h4-44---9999-7755-444-2h4-444--------------------|


LAST CHORUS
-----------------------------------------------------------------------------|
-----------------------------------------------------------------------------|
-----------------------------------------------------------------------------|
-------2h4-444---8s7-444---2h4-44---9999-7755-444-0-let-ring-----------------|


*PAUSE*


5:09/ HEAVY AND DIRTY RIFF
-----------------------------------------------------------------------------|
-----------------------------------------------------------------------------|
----------------15-13-----------------15-13---------16-16-16--------16-16-16-|
-12-12-13-12-12--------12-12-13-12-12---------15-15-----------15-15----------|


Approx 5:34/ STONER RIFF (the whole part 2x)
-----------------------------------------------------------------------------|
-----------------------------------------------------------------------------|
-----------------------------------------------------------------------------|
----12-12-13-12-12-13-12--12-12--12-13-12-12-13-13---------------------------|

-----------------------------------------------------------------------------|
-----------------------------------------------------------------------------|
-----------------------------------------------------------------------------|
----12-12-13-12-12-13-12--12-12--12-13-12-12-12-12---------------------------|

-----------------------------------------------------------------------------|
-----------------------------------------------------------------------------|
-----------------------------------------------------------------------------|
----12-12-13-12-12-13-12--12-12--12-13-12-12-15-15---------------------------|

-----------------------------------------------------------------------------|
-----------------------------------------------------------------------------|
-----------------------------------------------------------------------------|
----12-12-13-12-12-13-12--12-12--12-13-12-12-18-18---------------------------|


OUTRO SCREAM RIFF (length of the riff depends)                          End On
---------------------------------------------------------------------/-------|
---------------------------------------------------------------------/-------|
-------0-0-0------0-0-0------0-0-0-------0-0-0-----------------------/-------|
---7-7--------7-7--------7-7---------7-7---------10-12-13--10-12-13--/-----7-|
Добавлено: 28.06.2013
Вам также может быть интересно:
Другие материалы по этой песне:
  • Аккорды и текст

Страница создана 28.06.2013
http://primanota.ru/steak-number-eight/pyromaniac-chords.htm
Привет, Гость.
Предлагаем пройти революционный курс по гитаре.
Подарок от PrimaNota.Ru, забирай!