PrimaNota.ru - самый крупный в мире бесплатный архив песенных текстов, аккордов, табулатур и нот


Steak Number Eight - Gravity Giants - таба, видео

Регистрация Запомнить меня
Войти через:  Facebook Google Twitter Vk Yandex Mail.ru

Steak Number Eight - Gravity Giants - таба, видео

Печатать
Просмотров: 72
GRAVITY GIANTS By STEAK NUMBER EIGHT
----------------------------------------
Tabbed by: Niels Van de Walle
Tuning: GGCDAd
Some Rhythm parts are still missing but I am working on it
Also some parts could be wrong

Guitar 2 (Guitar 1 only plays the second time)
PM  -         -         -           -
d|-----------------------------------------------------|
A|-----------------------------------------------------|
F|-----------------------------------------------------|
C|-----------------------------------------------------|
G|----10h12-12---10h12-12---10h12-13-13---10h12-13-13--|
G|--0----------0----------0-------------0--------------|      \
                                                              3x
PM  -         -         -           -                         /
d|------------------------------------------------------|
A|------------------------------------------------------|
F|------------------------------------------------------|
C|------------------------------------------------------|
G|----10h12-12---10h12-12---10h12-13-13---10h12-/15-13--|
G|--0----------0----------0-------------0---------------| 

Both Guitars
d|----------------------------------------------------------------------------------------------------|
A|----------------------------------------------------------------------------------------------------|
F|--14-------9-9-10-8------5-4-5-7-8-------5-5-4-4--/15-------9-9-10-8------5-4-5-7-8--------5-5-4-4--|
C|----------------------------------------------------------------------------------------------------|
G|--12-------7-7-8--6------3-2-3-5-6-------3-3-2-2--/13-------7-7-8--6------3-2-3-5-6--------3-3-2-2--|
G|-----0--0------------0-------------0--0---------------0--0------------0--------------0--0-----------|

Guitar 1
/

Guitar 2
d|------------------------------------------------------------------------------------------|
A|------------------------------------------------------------------------------------------|
F|--9------9-9-10-8----5-4-5-7-8------5-5-4-4---9------9-9-10-8----5-4-5-7-8------5-5-4-4\--|
C|----7-7-----------7------------7-7--------------7-7-----------7------------7-7------------|
G|------------------------------------------------------------------------------------------|
G|------------------------------------------------------------------------------------------|

d|---------------------------------------------------------------|
A|---------------------------------------------------------------|
F|---------------------------------------------------------------|
C|-----9-----7-----4-4b5b4-2-0-2-----9-----7-----9-9b10b9-7-5-7--|   x2
G|--0-----0-----0-----------------0-----0-----0------------------|
G|---------------------------------------------------------------|

Guitar 2
PM  -         -         -           -
d|-----------------------------------------------------|
A|-----------------------------------------------------|
F|-----------------------------------------------------|
C|-----------------------------------------------------|
G|----10h12-12---10h12-12---10h12-13-13---10h12-13-13--|
G|--0----------0----------0-------------0--------------| 

PM  -         -         -           -
d|------------------------------------------------------|
A|------------------------------------------------------|
F|------------------------------------------------------|
C|------------------------------------------------------|
G|----10h12-12---10h12-12---10h12-13-13---10h12-/15-13--|
G|--0----------0----------0-------------0---------------| 

Guitar 1
PM  -         -         -           -
d|-----------------------------------------------------|
A|-----------------------------------------------------|
F|-----------------------------------------------------|
C|-----------------------------------------------------|  x4
G|----10h12-12---10h12-12---10h12-13-13---10h12-13-13--|
G|--0----------0----------0-------------0--------------| 

Guitar 2
PM  -         -         -           -
d|-----------------------------------------------------|
A|-----------------------------------------------------|
F|-----------------------------------------------------|
C|-----------------------------------------------------|  x2
G|----10h12-12---10h12-12---10h12-13-13---10h12-13-13--|
G|--0----------0----------0-------------0--------------| 

PM  -           -           -              -
d|---------------------------------------------------------|
A|---------------------------------------------------------|
F|---------------------------------------------------------|
C|-----9h11-11-----9h11-11-----9h11-12-12-----9h11-12-12---|
G|---------------------------------------------------------|
G|--0-----------0-----------0--------------0---------------|

PM  -           -           -              -
d|---------------------------------------------------------|
A|---------------------------------------------------------|
F|---------------------------------------------------------|
C|-----9h11-11-----9h11-11-----9h11-12-12-----9h11-14-12---|
G|---------------------------------------------------------|
G|--0-----------0-----------0--------------0---------------|

Guitar 1
/

Guitar 2
d|------------------------------------------------------------------------------------------|
A|------------------------------------------------------------------------------------------|
F|--9------9-9-10-8----5-4-5-7-8------5-5-4-4---9------9-9-10-8----5-4-5-7-8------5-5-4-4\--|
C|----7-7-----------7------------7-7--------------7-7-----------7------------7-7------------|
G|------------------------------------------------------------------------------------------|
G|------------------------------------------------------------------------------------------|

Both Guitars
d|----------------------------------------------------------------------------------------------------|
A|----------------------------------------------------------------------------------------------------|
F|--14-------9-9-10-8------5-4-5-7-8-------5-5-4-4--/15-------9-9-10-8------5-4-5-7-8--------5-5-4-4--|
C|----------------------------------------------------------------------------------------------------|
G|--12-------7-7-8--6------3-2-3-5-6-------3-3-2-2--/13-------7-7-8--6------3-2-3-5-6--------3-3-2-2--|
G|-----0--0------------0-------------0--0---------------0--0------------0--------------0--0-----------|

Guitar 1 (Slowly fade out)
d|--------------------|
A|--------------------|
F|--------------------|
C|--------------------|   
G|--------------------|
G|-0~~~~~~~~----------|

Guitar 2 (Clean & Phaser)
d|---------------------------------------------------------------|
A|---------------------------------------------------------------|
F|---------------------------------------------------------------|
C|-----9-----7-----4-4b5b4-2-0-2-----9-----7-----9-9b10b9-7-5-7--|   x6
G|--0-----0-----0-----------------0-----0-----0------------------|
G|---------------------------------------------------------------|

Guitar 2 (Distortion)
d|---------------------------------------------------------------|
A|---------------------------------------------------------------|
F|---------------------------------------------------------------|
C|-----9-----7-----4-4b5b4-2-0-2-----9-----7-----9-9b10b9-7-5-7--|   x10
G|--0-----0-----0-----------------0-----0-----0------------------|
G|---------------------------------------------------------------|
Добавлено: 25.06.2016
Другие материалы по этой песне:
  • Аккорды и текст

Страница создана 25.06.2016
http://primanota.ru/steak-number-eight/gravity-giants-chords.htm
Привет, Гость.
Предлагаем пройти революционный курс по гитаре.
Подарок от PrimaNota.Ru, забирай!