PrimaNota.ru - самый крупный в мире бесплатный архив песенных текстов, аккордов, табулатур и нот


Steak Number Eight - Dickhead - таба, видео

Регистрация Запомнить меня
Войти через:  Facebook Google Twitter Vk Yandex Mail.ru

Steak Number Eight - Dickhead - таба, видео

Печатать
Просмотров: 133
Уроки эстрадного вокала в Санкт-Петербурге
-------------------------------------------------------------------------------
                             DICKHEAD - Steak Number Eight
-------------------------------------------------------------------------------
Tabbed by: Niels Van de Walle

Tuning: GGCFAd

INTRO
Guitar 1
d|---------------------------------------------------------------------------|
A|---------------------------------------------------------------------------|
F|---------------------------------------------------------------------------|
C|---------------------------------------------------------------------------|
G|--0-0---0-0-0---0-0-0---0-0-0--------0-0---0-0-0---0-0-0-------------------|
G|--0-0---0-0-0---0-0-0---0-0-0-1-0-0--0-0---0-0-0---0-0-0--0-6-0-6-0--------|
                                                        \/ Guitar 2 comes in here
d|----------------------------------------------------------|
A|----------------------------------------------------------|
F|------------------------------------------------------14--|
C|------------------------------------------------------13--|
G|--0-0---0-0-0---0-0-0---0-0-0--------0-0---0-0-0---0--12--|
G|--0-0---0-0-0---0-0-0---0-0-0-1-0-0--0-0---0-0-0---0------|

VERSE 1
Both Guitars
d|---------------------------------------------------------------------------|
A|---------------------------------------------------------------------------|
F|---------------------------------------------------------------------------|
C|---------------------------------------------------------------------------|  x2
G|--0-0---0-0-0---0-0-0---0-0-0--------0-0---0-0-0---0-0-0-------------------|
G|--0-0---0-0-0---0-0-0---0-0-0-1-0-0--0-0---0-0-0---0-0-0--0-6-0-6-0--------|

VERSE 2
Both Guitars
d|-----------------------------------------------------------------|-----------------------|
A|-----------------------------------------------------------------|-----------------------|
F|-----------------------------------------------------------------|-----------------------|
C|-------------13-11-11--------------13-11-11-------------13-11-11-|-------------13-13-13--|
G|-------------12-12-12--------------12-12-12-------------12-12-12-|-------------12-12-12--|
G|--0--0-0-0-0-----------0--0-0-0-0------------0--0-0-0-0----------|-0--0-0-0-0------------|
2nd time end with this
d|--------------------------------------------------|
A|--------------------------------------------------|
F|--------------------------------------------------|
C|--13-13-1313-13-13-1313-13-13-1313-13-13-1313-13--|
G|--12-12-1212-12-12-1212-12-12-1212-12-12-1212-12--|
G|--------------------------------------------------|

PRE-CHORUS
Guitar 2
d|--------------------------------------------------|
A|--------------------------------------------------|
F|----------------------12--------------------------|
C|--15-15-14--15-15-14------15-15-14--15-15-14------|
G|----------------------------------------------15--|
G|--------------------------------------------------|
Keep playing 'till intro riff ^

Guitar 1 (comes in after 2 times)
d|-------------------------------------------------------------------------------------------------------------
A|-------------------------------------------------------------------------------------------------------------
F|-------------------------------------------------------------------------------------------------------------
C|-------------------------------------------------------------------------------------------------------------
G|-------------------------------------------------------------------------------------------------------------
G|-0-0000-0-0000-0-0000-333444-5-5555-5-5555-5-5555-7-7777-8-8888-8-8888-8-8888-11-11111111-7-7777-12-12121212-
PM * **** * **** * **** ****** * **** * **** * **** * **** * **** * **** * **** *  * * * *  * **** *  * * * *  

------------------------|
------------------------|
------------------------|
------------------------|  x2
------------------------|
12-12121212-12-12121212-|
*  * * * *  *  * * * *

CHORUS
d|--------------------------------------------------------------------------------------------------------------
A|--------------------------------------------------------------------------------------------------------------
F|--------------------------------------------------------------------------------------------------------------
C|--------------------55-66-77-77-77-77-77-77-99-99-1010-1010-1010-1010-1313-1313-99-99-1414-1414-1414-1414-1414
G|--00-00-00-00-00-00-------------------------------------------------------------------------------------------
G|--00-00-00-00-00-00-33-44-55-55-55-55-55-55-77-77-8-8--8-8--8-8--8-8--1111-1111-77-77-1212-1212-1212-1212-1212

----------------|
----------------|
----------------|
-1414-1414-1414-|  x2
----------------|
-1212-1212-1212-|

INTRO RIFF
Both Guitars
d|---------------------------------------------------------------------------|
A|---------------------------------------------------------------------------|
F|---------------------------------------------------------------------------|
C|---------------------------------------------------------------------------|  x2
G|--0-0---0-0-0---0-0-0---0-0-0--------0-0---0-0-0---0-0-0-------------------|
G|--0-0---0-0-0---0-0-0---0-0-0-1-0-0--0-0---0-0-0---0-0-0--0-6-0-6-0--------|

VERSE 2
Both Guitars
d|-----------------------------------------------------------------|-----------------------|
A|-----------------------------------------------------------------|-----------------------|
F|-----------------------------------------------------------------|-----------------------|
C|-------------13-11-11--------------13-11-11-------------13-11-11-|-------------13-13-13--|
G|-------------12-12-12--------------12-12-12-------------12-12-12-|-------------12-12-12--|
G|--0--0-0-0-0-----------0--0-0-0-0------------0--0-0-0-0----------|-0--0-0-0-0------------|
2nd time end with this
d|--------------------------------------------------|
A|--------------------------------------------------|
F|--------------------------------------------------|
C|--13-13-1313-13-13-1313-13-13-1313-13-13-1313-13--|
G|--12-12-1212-12-12-1212-12-12-1212-12-12-1212-12--|
G|--------------------------------------------------|

BRIDGE
Guitar 1
d|------------------------------------------------------------------------------------|
A|------------------------------------------------------------------------------------|
F|------------------------------------------------------------------------------------|
C|------------------------------------------------------------------------------------| 3x
G|------------------------------------------------------------------------------------|
G|--8-8888-8-8888-8-8888-8-8888-8-12-12121212-12-12121212-12-12121212-12-15-15151515--|

d|------------------------------------------------------------------------------------|
A|------------------------------------------------------------------------------------|
F|------------------------------------------------------------------------------------|
C|------------------------------------------------------------------------------------|
G|------------------------------------------------------------------------------------|
G|--8-8888-8-8888-8-8888-8-8888-8-10-10101010-10-10101010-10-10101010-10-10-10101010--|

d|--------------------------------------0--0--0--0--0--0--0-----------|
A|--------------------------------------1--1--1--1--1--1--1-----------|
F|--------------------------------------2--2--2--2--2--2--2-----------|
C|--10-10-10-10-10-10-10-10-10-10-10-10-2--2--2--2--2--2--2--5--5--5--| 3x
G|--8--8--8--8--8--8--8--8--8--8--8--8--0--0--0--0--0--0--0--3--3--3--|
G|--8--8--8--8--8--8--8--8--8--8--8--8--0--0--0--0--0--0--0--3--3--3--|

d|---------------------------------------------------------------------|
A|---------------------------------------------------------------------|
F|---------------------------------------------------------------------|
C|--10-10-10-10-10-10-10-10-10-10-10-10-12-12-12-12-12-12-12-12-12-12--|
G|--8--8--8--8--8--8--8--8--8--8--8--8--10-10-10-10-10-10-10-10-10-10--|
G|--8--8--8--8--8--8--8--8--8--8--8--8--10-10-10-10-10-10-10-10-10-10--|

d|------------------------------------------------------------------------------|
A|------------------------------------------------------------------------------|
F|------------------------------------------------------------------------------|
C|--10-------10-------10-------10-------14--------14--------14--------17--------| 3x
G|--8--0--0--8--0--0--8--0--0--8--0--0--12--0--0--12--0--0--12--0--0--15--0--0--|
G|--8--0--0--8--0--0--8--0--0--8--0--0--12--0--0--12--0--0--12--0--0--15--0--0--|

d|---------------------------------------------------------------------|
A|---------------------------------------------------------------------|
F|---------------------------------------------------------------------|
C|--10-------10-------10-------10-------12-12-12-12-12-12-12-12-12-12--|
G|--8--0--0--8--0--0--8--0--0--8--0--0--10-10-10-10-10-10-10-10-10-10--|
G|--8--0--0--8--0--0--8--0--0--8--0--0--10-10-10-10-10-10-10-10-10-10--|

Guitar 2
d|---------------------------------------------------------------------------------------------------|
A|---------------------------------------------------------------------------------------------------|
F|--14-14141414-14-14141414-14-14141414-16-16161616-17-17171717-17-17171717-17-17171717-21-21212121--|
C|---------------------------------------------------------------------------------------------------|  x3
G|--12-12121212-12-12121212-12-12121212-14-14141414-15-15151515-15-15151515-15-15151515-19-19191919--|
G|---------------------------------------------------------------------------------------------------|

d|---------------------------------------------------------------------------------------------------|
A|---------------------------------------------------------------------------------------------------|
F|--14-14141414-14-14141414-14-14141414-14-14141414-16-16161616-16-16161616-16-16161616-16-16161616--|
C|---------------------------------------------------------------------------------------------------|
G|--12-12121212-12-12121212-12-12121212-12-12121212-14-14141414-14-14141414-14-14141414-14-14141414--|
G|---------------------------------------------------------------------------------------------------|

d|---------------------------------------------------------------------------|
A|---------------------------------------------------------------------------|
F|--14-14-14-14-14-14-14-14-14-16-16-16-17-17-17-17-17-17-17-17-17-21-21-21--|
C|---------------------------------------------------------------------------|  x3
G|--12-12-12-12-12-12-12-12-12-14-14-14-15-15-15-15-15-15-15-15-15-19-19-19--|
G|---------------------------------------------------------------------------|

d|---------------------------------------------------------------------------------------------|
A|---------------------------------------------------------------------------------------------|
F|--14-14-14-14-14-14-14-14-14-14-14-14-16-16-16-16-16-16-16-16-16-16-16-16-16-16-16-16-16-16--|
C|---------------------------------------------------------------------------------------------|
G|--12-12-12-12-12-12-12-12-12-12-12-12-14-14-14-14-14-14-14-14-14-14-14-14-14-14-14-14-14-14--|
G|---------------------------------------------------------------------------------------------|

d|-----------------------------------------------------------|
A|-----------------------------------------------------------|
F|--14-----14-----14-----14-----17-----17-----17-----21------|
C|-----------------------------------------------------------|  x3
G|--12-----12-----12-----12-----15-----15-----15-----19------|
G|-----0-0----0-0----0-0----0-0----0-0----0-0----0-0----0-0--|

d|---------------------------------------------------|
A|---------------------------------------------------|
F|--14-----14-----14-----14------16161616161616------|
C|---------------------------------------------------|
G|--12-----12-----12-----12------14141414141414------|
G|-----0-0----0-0----0-0----0-0----------------------|

CHORUS
d|--------------------------------------------------------------------------------------------------------------
A|--------------------------------------------------------------------------------------------------------------
F|--------------------------------------------------------------------------------------------------------------
C|--------------------55-66-77-77-77-77-77-77-99-99-1010-1010-1010-1010-1313-1313-99-99-1414-1414-1414-1414-1414
G|--00-00-00-00-00-00-------------------------------------------------------------------------------------------
G|--00-00-00-00-00-00-33-44-55-55-55-55-55-55-77-77-8-8--8-8--8-8--8-8--1111-1111-77-77-1212-1212-1212-1212-1212

----------------|
----------------|
----------------|
-1414-1414-1414-|  x2
----------------|
-1212-1212-1212-|

VERSE 1
Both Guitars
d|---------------------------------------------------------------------------|
A|---------------------------------------------------------------------------|
F|---------------------------------------------------------------------------|
C|---------------------------------------------------------------------------|  x2
G|--0-0---0-0-0---0-0-0---0-0-0--------0-0---0-0-0---0-0-0-------------------|
G|--0-0---0-0-0---0-0-0---0-0-0-1-0-0--0-0---0-0-0---0-0-0--0-6-0-6-0--------|

VERSE 2
Both Guitars
d|-----------------------------------------------------------------|-----------------------|
A|-----------------------------------------------------------------|-----------------------|
F|-----------------------------------------------------------------|-----------------------|
C|-------------13-11-11--------------13-11-11-------------13-11-11-|-------------13-13-13--|
G|-------------12-12-12--------------12-12-12-------------12-12-12-|-------------12-12-12--|
G|--0--0-0-0-0-----------0--0-0-0-0------------0--0-0-0-0----------|-0--0-0-0-0------------|
2nd time end with this
d|--------------------------------------------------|
A|--------------------------------------------------|
F|--------------------------------------------------|
C|--13-13-1313-13-13-1313-13-13-1313-13-13-1313-13--|
G|--12-12-1212-12-12-1212-12-12-1212-12-12-1212-12--|
G|--------------------------------------------------|

Both Guitars
d|-----------------|
A|-----------------|
F|-----------------|
C|-----------------|
G|--0~~~~~~--------|
G|--0~~~~~~--------|

************************************

| /   slide up
| \   slide down
| h   hammer-on
| p   pull-off
| ~   vibrato
| +   harmonic
| x   Mute note
| b   Bend
| pb  Pre-bend
| br  Bend release
| pbr Pre-bend release
| brb Bend release bend

************************************
Добавлено: 25.06.2016
Другие материалы по этой песне:

Страница создана 03.04.2012
http://primanota.ru/steak-number-eight/dickhead-chords.htm
Привет, Гость.
Предлагаем пройти революционный курс по гитаре.
Подарок от PrimaNota.Ru, забирай!