PrimaNota.ru - самый крупный в мире бесплатный архив песенных текстов, аккордов, табулатур и нот


Stavesacre - Zzyzx Scarecrow - текст песни, таба, видео

Регистрация Запомнить меня
Войти через:  Facebook Google Twitter Vk Yandex Mail.ru

Stavesacre - Zzyzx Scarecrow - текст песни, таба, видео

Печатать
Просмотров: 85
		   Song: Zzyzx Scarecrow
Arist: Stavesacre
Album: Absolutes
Tooth and Nail Records

TABBED BY YER BESTEST BUDDY, FLIP!



Everything is in drop D tuning


opening line

G---5h7--7--7--7h8p7--7--7--7--5h7--5
D---0--0--0--0--0--0--0--0--0--0--0--0--0


Transition (before bass comes in)

D---6--6--1--1--8
A---6--6--1--1--8
E---6--6--1--1--8


repeat opening line


Heavy part and 2nd part of verse

D---10h12--12--12--13p12--12--12-x-x-x
A---10h12--12--12--13p12--12--12-x-x-x
E---10h12--12--12--13p12--12--12-x-x-x


1st part of Verse  (muted at bridge)

D---10-12-13-12-x-x-15
A---10-12-13-12-x-x-15
E---10-12-13-12-x-x-15


Chorus ("can you feel it coming down...")

D---10h12-12-12-13p12-12-12--8-8--3-3-3h5-0
A---10h12-12-12-13p12-12-12--8-8--3-3-3h5-0
E---10h12-12-12-13p12-12-12--8-8--3-3-3h5-0


guitar line before psuedo end  (just do this when it sounds right)

guitar #1			guitar #2

G---13p12			D---7--7--7--7-7--8--8--8--7-7--19--19--19/7-7--8888-3333-33h5-0--12
D---0----0			A----------------------------------------------------------8888-3333-33h5-0--12      sustian
				E----------------------------------------------------------8888-3333-33h5-0--12


play opening line over, then...

D---12-0-0-10-0-0-8-0-0-7-0-0-5-0-0
A---12-0-0-10-0-0-8-0-0-7-0-0-5-0-0
E---12-0-0-10-0-0-8-0-0-7-0-0-5-0-0


solo

D---12-12-12-12-12-12-12-12-14-14-14-14-14-14-14-14-15-15-15-15-15-15-15-15-17-17-17-17-17-17-17-17

D---19-19-19-19/12--12--12-12-12/19-19-19-19/10--10--10-10-10/19-19-19-19-/12-12-12-12/17-17-17-17-17-17-17-17-17

then go to the part right above and you're done

Questions?  Comments?  Complaints?  Concerns?  E-mail me - owentm@tcbi.com
     
Добавлено: 08.10.2013
Другие материалы по этой песне:
  • Аккорды и текст

Страница создана 26.02.2012
http://primanota.ru/stavesacre/zzyzx-scarecrow-chords.htm
Привет, Гость.
Предлагаем пройти революционный курс по гитаре.
Подарок от PrimaNota.Ru, забирай!