PrimaNota.ru - самый крупный в мире бесплатный архив песенных текстов, аккордов, табулатур и нот


Stavesacre - Threshold - текст песни, таба, бас-таба, видео

Регистрация Запомнить меня
Войти через:  Facebook Google Twitter Vk Yandex Mail.ru

Stavesacre - Threshold - текст песни, таба, бас-таба, видео

Печатать
Просмотров: 135
		   THRESHOLD
                                 By Stavesacre
                    (c) Stavesacre and tooth and nail records.
              Tabbed by James Lesure (cromag@endial.eas.asu.edu)
   


...WELLP!! here it is...threshold by stavesacre, a tottaly kickin band!!!!
well the tab is not that great but its plenty good to play and show off too
friends who think you are really cool for playing cool songs...GOd blesss!!

Dropped D tunning

(Opening) Repeat 4 times.

e---0-0---------          e----0
B---3---3-------          B----3
G---2-----------          G----2    -----end 4th time on this
D---0------3-3-3          D----0
A----------3-3-3
D----------3-3-3
 
We'll call this rift A

(Rift A, main part) Play this from 0:14-0:21 

e
B
G
D---6-5-3--0---3--0--3--6
A---6-5-3--0---3--0--3--6
D---6-5-3--0---3--0--3--6
 
Then, 

Rift B, play from 0:21-0:32

D--12-12-12-12-10-10-10-10-12-12-12-12-15-15-15-15
A-------------------------------------------------
D-------------------------------------------------
 
Then play rift A from 0:32- 0:38

Now play this over the Bass, hold out the chords!

(Rift C) Play it from  0:52-1:06, 

D--12-hold-10-hold-12-hold-15----
A--12-hold-10-hold-12-hold-15----
D--12-hold-10-hold-12-hold-15----

Rift A again from 1:06-1:22, "...why dont I...."

Rift C agian from 1:22-1:51

Rift A from 1:51-2:14, but hold the final note...

the bass does its thing from 2:14 or so to 2:44 when you...

play Rift D..from 2:44-4:04 over and over and over..the rift starts

...."watching you curse the sky..."'
 
e-----
b-----
g------------------------------------------------------------------------
d-------12--12-12-12-----10--10-10-10--------10--10-10-----12--12-12-12--
a-----12--12--------12-10--10--------10-10-10--10-----10-12--12--------12
D------------------------------------------------------------------------
 
C Rift D like this untill around 3:40, then add this to the end of it 
and reapeat..

e
b
g
d------15--15-15-15-15------  ------------ just got to listen 
a----15--15-----------15----             fot he timing on this groove
D---------------------------     


then, 2 guitars come in one playing rift A and the other doing that total
kick butt solo which i have no idea how to do sooooo someone figure it out!
solo played from 4:04- 4:18 and Rift A untill 4:44 when you come in with...

the final rift, Rift E...this will take you to the end...

e-----
b-----
g-----
d-----0-0-0-8-6-3
a-----0-0-0-8-6-3    ------for some reason i could figure this that close
D-----0-0-0-8-6-3          so im sure this is some what off

 WEEELLLL our time has come to a end...this tab turned out better than i 
thougth ...not to shabey for a 14 yr old Jesus freak who has only played
for 6 months!!! IXOYE!
 -James Lesure    (cromag@endial.eas.asu.edu)
 oh yea..... Rockin with the cross kicks major buTTTT!!!! 

     
Добавлено: 25.11.2013
Другие материалы по этой песне:
  • Аккорды и текст

Страница создана 21.04.2012
http://primanota.ru/stavesacre/threshold-chords.htm
Привет, Гость.
Предлагаем пройти революционный курс по гитаре.
Подарок от PrimaNota.Ru, забирай!