PrimaNota.ru - самый крупный в мире бесплатный архив песенных текстов, аккордов, табулатур и нот


Stavesacre - Shiv - текст песни, таба, бас-таба, видео

Регистрация Запомнить меня
Войти через:  Facebook Google Twitter Vk Yandex Mail.ru

Stavesacre - Shiv - текст песни, таба, бас-таба, видео

Печатать
Просмотров: 131
Уроки эстрадного вокала в Санкт-Петербурге
		   Author/Artist: Stavesacre
Title: Shiv
Album: Absolutes
Transcribed by: Dustin Waldrop
Email: lwaldrop@stc.net

Tunning: Dropped D Low To High (  D A D G B E )
any Questions?Comments? Email Me!!!

1997 Spinning Audio Vortex Publishing(BMI)/Car Seven Tractor(BMI)

------2-2---------------------2-2--------------------2-2----------------------
------3-3---------------------3-3--------------------3-3----------------------
------2-2---------------------2-2--------------------2-2----------------------
-6p0--0-0---5-5--8-8-8---6p0--0-0--5-5--8-8-8---6p0--0-0--5-5--8-8-8----------
-6p0--0-0---5-5--8-8-8---6p0--0-0--5-5--8-8-8---6p0--0-0--5-5--8-8-8----------
-6p0--0-0---5-5--8-8-8---6p0--0-0--5-5--8-8-8---6p0--0-0--5-5--8-8-8----------
                                                                              

------2-2----------------------2---------------------2-2----------------------
------3-3----------------------3---------------------3-3----------------------
------2-2----------------------2---------------------2-2----------------------
-6p0--0-0---5-5--8-8-8--6-6-6--0-----8-8-8-8----6p0--0-0--5-5--8-8-8---6p0----
-6p0--0-0---5-5--8-8-8--6-6-6--0-----8-8-8-8----6p0--0-0--5-5--8-8-8---6p0----
-6p0--0-0---5-5--8-8-8--6-6-6--0-----8-8-8-8----6p0--0-0--5-5--8-8-8---6p0----
                  ...out of skin                                              

-2-2----------------------2--------------------2-2--------------------2-2-----
-3-3----------------------3--------------------3-3--------------------3-3-----
-2-2----------------------2--------------------2-2--------------------2-2-----
-0-0---5-5--8-8-8--6-6-6--0----8-8-8-8----6p0--0-0--5-5--8-8-8---6p0--0-0-----
-0-0---5-5--8-8-8--6-6-6--0----8-8-8-8----6p0--0-0--5-5--8-8-8---6p0--0-0-----
-0-0---5-5--8-8-8--6-6-6--0----8-8-8-8----6p0--0-0--5-5--8-8-8---6p0--0-0-----
                      ...Know                                                 

------------------2-2---------------------2-2---------------------2-----------
------------------3-3---------------------3-3---------------------3-----------
------------------2-2---------------------2-2---------------------2-----------
-5-5--8-8-8--6p0--0-0--5-5--8-8-8----6p0--0-0--5-5--8-8-8--6-6-6--0--8-8-8-8--
-5-5--8-8-8--6p0--0-0--5-5--8-8-8----6p0--0-0--5-5--8-8-8--6-6-6--0--8-8-8-8--
-5-5--8-8-8--6p0--0-0--5-5--8-8-8----6p0--0-0--5-5--8-8-8--6-6-6--0--8-8-8-8--
                                                                              

--------2----------|-------------------------------------------------------|--
--------3----------|-------------------------------------------------------|--
--------2----------|-7-----------------------------------------------------|--
-6-6-6--0--8-8-8-8-|-x-----------------------------------------------------|--
-6-6-6--0--8-8-8-8-|-5-----------------------------------------------------|--
-6-6-6--0--8-8-8-8-|-------------------------------------------------------|--
         ...change   nothing lost.... repeat this chord many times...then     

--------------|--------2------------------------------------------------------
-7-/-10-\5----|--------3------------------------------------------------------
-x---x---x----|--------2------------------------------------------------------
-5-/-8--\3----|---6p0--0--2h3-4-5---------------------------------------------
--------------|---6p0--0--2h3-4-5---------------------------------------------
--------------|---6p0--0--2h3-4-5---------------------------------------------
 to hinder me..                   do that x4 then do it PM  x2 and play the   

------------------------------------------------------------------------------
------------------------------------------------------------------------------
------------------------------------------------------------------------------
------------------------------------------------------------------------------
------------------------------------------------------------------------------
------------------------------------------------------------------------------
 play the entire thing over..you'll get it sooner or later               
Добавлено: 08.06.2013
Другие материалы по этой песне:
  • Аккорды и текст

Страница создана 09.04.2012
http://primanota.ru/stavesacre/shiv-chords.htm
Привет, Гость.
Предлагаем пройти революционный курс по гитаре.
Подарок от PrimaNota.Ru, забирай!