PrimaNota.ru - самый крупный в мире бесплатный архив песенных текстов, аккордов, табулатур и нот


Stavesacre - Loader - текст песни, таба, бас-таба, видео

Регистрация Запомнить меня
Войти через:  Facebook Google Twitter Vk Yandex Mail.ru

Stavesacre - Loader - текст песни, таба, бас-таба, видео

Печатать
Просмотров: 202
Уроки эстрадного вокала в Санкт-Петербурге
		   Song: Loader
Artist: Stavesacre
Album: Friction
Tabbed by: chrisliepe@geocities.com
(c) 1996 Spinning Audio Vortex Publishing

!!!PLEASE NOTE!!!  This is the authors own interpretation of the song.
To submit errors that I have made, or to add to the tabs that I have mail
me at "chrisliepe@geocities.com" 
______________________________________________________________________
The most simple way to play it is to tune the low E string down to D,
and Play it VERY fast with lots of power!!!
______________________________________________________________________

INTRO: play 2 times before going on to main vs.

E|-------------------------|-------------------------|
B|-------------------------|-------------------------|
G|-------------------------|-------------------------|
D|-0---3---4---3---4---10--|-0---3---4---3---4---10--|
A|-0---3---4---3---4---10--|-0---3---4---3---4---10--|
D|-0---3---4---3---4---10--|-0---3---4---3---4---10--|

E|-------------------------|-------------------------|
B|-------------------------|-------------------------|
G|-------------------------|-------------------------|
D|-0---3---4---3---4---10--|-0---3---4---3---4---10--|
A|-0---3---4---3---4---10--|-0---3---4---3---4---10--|
D|-0---3---4---3---4---10--|-0---3---4---3---4---10--|


E|-----------------------------------|-----------------------------------|
B|-----------------------------------|-----------------------------------|
G|-----------------------------------|-----------------------------------|
D|-0-0-0--3-3-3--4-4-4--3-3--4-4--10-|-0-0-0--3-3-3--4-4-4--3-3--4-4--10-|
A|-0-0-0--3-3-3--4-4-4--3-3--4-4--10-|-0-0-0--3-3-3--4-4-4--3-3--4-4--10-|
D|-0-0-0--3-3-3--4-4-4--3-3--4-4--10-|-0-0-0--3-3-3--4-4-4--3-3--4-4--10-|

E|-----------------------------------|---------------------------|
B|-----------------------------------|---------------------------|
G|-----------------------------------|---------------------------|
D|-0-0-0--3-3-3--4-4-4--3-3--4-4--10-|-3---3---3---4---4---4---0-|
A|-0-0-0--3-3-3--4-4-4--3-3--4-4--10-|-3---3---3---4---4---4---0-|
D|-0-0-0--3-3-3--4-4-4--3-3--4-4--10-|-3---3---3---4---4---4---0-|


MAIN VS. REPEAT 4 TIMES

E|-----------------|-----------------|-----------------|
B|-----------------|-----------------|-----------------|
G|-----1-1-1-1-1-1-|-----1-1-1-1-1-1-|-----1-1-1-1-1-1-|
D|-0---------------|-0---------------|-0---------------|
A|-0---------------|-0---------------|-0---------------|
D|-0---------------|-0---------------|-0---------------|

E|---------------------------|
B|---------------------------|
G|---------------------------|
D|-3---3---3---4---4---4---0-|
A|-3---3---3---4---4---4---0-|
D|-3---3---3---4---4---4---0-|


CLOSING ON VS.

E|--------------------|--------------------|--------------------|
B|--------------------|--------------------|--------------------|
G|--------------------|--------------------|--------------------|
D|-5-5--5--6--6--3--0-|-5--6--5--3--6-6--0-|-5-5--5--6--6--3--0-|
A|-5-5--5--6--6--3--0-|-5--6--5--3--6-6--0-|-5-5--5--6--6--3--0-|
D|-5-5--5--6--6--3--0-|-5--6--5--3--6-6--0-|-5-5--5--6--6--3--0-|

E|---------------------------------------------------|
B|---------------------------------------------------|
G|---------------------------------------------------|
D|-5--6--5--3--6-6--5--6--5--3--6-6--5--6--5--3--6-6-|
A|-5--6--5--3--6-6--5--6--5--3--6-6--5--6--5--3--6-6-|
D|-5--6--5--3--6-6--5--6--5--3--6-6--5--6--5--3--6-6-|

E|-----------------|
B|-----------------|
G|-----------------|
D|-5-5--5--6--6--3-|
A|-5-5--5--6--6--3-|
D|-5-5--5--6--6--3-|


INTRO TO BRIDGE, repeat 4 times before going to bridge

E|--------------------------------|
B|--------------------------------|
G|--------------------------------|
D|--------------------------------|
A|-------------------3-3-3-3------|
D|-0-0-0-0-4-3-0-3-0---------0-3b-|


BRIDGE: repeat this riff 11 times then play first part of the intro,
and you will have played the whole song.


E|-----------------------------------|--------------------------------------|
B|-----------------------------------|--------------------------------------|
G|-----------------------------------|--------------------------------------|
D|-0-0-0-0-4-3-0-3-0-10-10-10-10-0-3-|-0-0-0-0-4-3-0-3-0-10-10-10-r-11-11-11|
A|-0-0-0-0-4-3-0-3-0-10-10-10-10-0-3-|-0-0-0-0-4-3-0-3-0-10-10-10-r-11-11-11|
D|-0-0-0-0-4-3-0-3-0-10-10-10-10-0-3-|-0-0-0-0-4-3-0-3-0-10-10-10-r-11-11-11|     
Добавлено: 28.09.2013
Другие материалы по этой песне:
  • Аккорды и текст

Страница создана 09.05.2012
http://primanota.ru/stavesacre/loader-chords.htm
Привет, Гость.
Предлагаем пройти революционный курс по гитаре.
Подарок от PrimaNota.Ru, забирай!