PrimaNota.ru - самый крупный в мире бесплатный архив песенных текстов, аккордов, табулатур и нот


Stavesacre - Keep Waiting - текст песни, таба, видео

Регистрация Запомнить меня
Войти через:  Facebook Google Twitter Vk Yandex Mail.ru

Stavesacre - Keep Waiting - текст песни, таба, видео

Печатать
Просмотров: 107
Tabbed By: Keith Cokeley
Artist: Stavesacre 
Song: Keep Waiting 


This is a really easy song to play. I think this is pretty close. so here we go 

Drop D Tuning

Intro
Listen to the song for how many times to play it 
E---------------------
B-----2---3--3-h2------
G---2---2--2-----2----
D-0-------------------
A---------------------
D---------------------


Verse

E-------------------------------
B-------------------------------
G-------------------------------
D-0-0-0-4-0-5-5-5-4-4-4---------
A-0-0-0-4-0-5-5-5-4-4-4---------
D-0-0-0-4-0-5-5-5-4-4-4---------


E-------------------------------
B-------------------------------
G-------------------------------
D-0-0-0-4-0--9-9-9-7-7-7--------
A-0-0-0-4-0--9-9-9-7-7-7--------
D-0-0-0-4-0--9-9-9-7-7-7--------

Then go back to the top of Verse 
and do it again.
Then after you do the verse a couple times then do this 

E------------------------------
B------------------------------
G-11--11--11--11--7--7--7--7---
D-11--11--11--11--7--7--7--7---
A-9---9---9---9---5--5--5--5---
D-9---9---9---9---5--5--5--5---


You really have to listen to the song how many times to play each thing..
Добавлено: 19.04.2012
Другие материалы по этой песне:

Страница создана 08.03.2012
http://primanota.ru/stavesacre/keep-waiting-chords.htm
Привет, Гость.
Предлагаем пройти революционный курс по гитаре.
Подарок от PrimaNota.Ru, забирай!