PrimaNota.ru - самый крупный в мире бесплатный архив песенных текстов, аккордов, табулатур и нот


Stavesacre - Colt .45 - текст песни, таба, видео

Регистрация Запомнить меня
Войти через:  Facebook Google Twitter Vk Yandex Mail.ru

Stavesacre - Colt .45 - текст песни, таба, видео

Печатать
Просмотров: 89
		   Title: Colt .45
Artist: Stavesacre
Album: Absolutes
(c) 1997 Tooth and Nail records  
tabbed by:  David Golden     dgolden@maranatha.net

Ummmm... this is Colt .45 as best as i could figger it out... everything may not be COMPLETELY perfect... 
but it seems to play along with the CD perfectly.  =D sooooo.... don't blame me... please... 
Any corrections are perfectly welcome if you know what you are doing but include my address too. =) thanx

Throughout the whole song the low E is tuned down to a D

in the beginning the bass does its little thing then play
(riff 1)
x|---------------------------------------------------------------------------------------------
x|---------------------------------------------------------------------------------------------
 |-7--9--10--10--9--10--10--9--7--9--10--10--9--10--10--9--7--9--10--10--9--10--10--9--7--9--7-
x|---------------------------------------------------------------------------------------------
x|---------------------------------------------------------------------------------------------
x|---------------------------------------------------------------------------------------------
 ...this is more than another passing stage...

then with palm muting and distortion...

(riff 2)
x|----------------------
x|----------------------
x|----------------------
 |--3--5--0--7--5-------
 |--3--5--0--5--3-------
 |--3--5--0--x--x-------
  play 4 times until  ...this is my everything...

 then still muted

(riff 3)
x|-----------------------------
x|-----------------------------
x|-----------------------------
 |--0--7--5--6--3--5--0--------
 |--0--5--3--6--3--5--0--------
 |--0--x--x--6--3--5--0--------
play 4 times until  ...something more than faith...
then repeat riff 3 unmuted with loud distortion 7 times 

(riff 4)   then play this with ...action begs reaction...
x|-----------------------
x|-----------------------
x|-----------------------
 |--0--3--5--8--7--------
 |--0--3--5--8--7--------
 |--0--3--5--8--7--------

then without distortion (or softer distortion)
(riff 5)
x|---------------------------------
x|---------------------------------
 |--9---10---9----7---10----9------
 |--x----x---x----x----x----x------
 |--7----8---7----5----8----7------
 |--x----x---x----x----x----x------
  play this 3 times and fourth time play

(riff 6)
x|------------------------------------------
x|------------------------------------------
 |--9--10---9---7----x---x---x---x---x------
 |--x---x---x---x----8---7---5---3---0------
 |--7---8---7---5----8---7---5---3---0------
 |--x---x---x---x----8---7---5---3---0------
-
then the bass thing again
 riff 1

riff 2 muted distortion

riff 3 muted distortion
...to my claims...

riff 3 unmuted loud distortion

riff 4

riff 5

riff 6

riff 3 muted 4 times

riff 3 unmuted 4 times

then play this 3 times
(riff 7)
x|-------------------------------------------------------------------------------------------------------------------
x|-------------------------------------------------------------------------------------------------------------------
x|-------------------------------------------------------------------------------------------------------------------
 |--0---3---0---3---0---6---5---0---3---0---6---0---6---5---0---3---0---6---0---5---5---0---3---0---3---0---6---5---5
 |--0---3---0---3---0---6---5---0---3---0---6---0---6---5---0---3---0---6---0---5---5---0---3---0---3---0---6---5---5
 |--0---3---0---3---0---6---5---0---3---0---6---0---6---5---0---3---0---6---0---5---5---0---3---0---3---0---6---5---5

riff 3 twice muted

riff 7 once

riff 3 unmuted three times

riff 4 unmuted

riff 4 muted

riff 5 two times then slight variation third time

riff 6

then that crrrazy bass thing again----------------------------

then finally  muted
x|----------------------------------
x|----------------------------------
x|----------------------------------  
 |--3--5--0-------------------------
 |--3--5--0-------------------------
 |--3--5--0-------------------------

And thats it. there you go. (riff 1 sounds really good with a tube screamer pedal =D)
for all you legal people i didn't write this song nor do i  claim to... 
i am just writing my impression of how the song is played... sooo
ummm..... nobody sue me or anything...hahaha   =D


     
Добавлено: 26.10.2013
Другие материалы по этой песне:
  • Аккорды и текст

Страница создана 03.07.2012
http://primanota.ru/stavesacre/colt-45-chords.htm
Привет, Гость.
Предлагаем пройти революционный курс по гитаре.
Подарок от PrimaNota.Ru, забирай!