PrimaNota.ru - самый крупный в мире бесплатный архив песенных текстов, аккордов, табулатур и нот


Stavesacre - An Eclipsing - таба, видео

Регистрация Запомнить меня
Войти через:  Facebook Google Twitter Vk Yandex Mail.ru

Stavesacre - An Eclipsing - таба, видео

Печатать
Просмотров: 66
		   "An Eclipsing"
Stavesacre
Absolutes
Words and Music: Stavesacre
(c) 1997 Tooth & Nail Records
Tabbed By: Johnny Lloyd (Starflyr99@aol.com)


-- Verse One --
e-|-------------|-------------|-------------|-------------|
B-|-------------|-------------|-------------|-------------|
G-|-------------|-------------|-------------|-------------|
D-|-2--2--2-5\7-|-2--2--2-5\7-|-2--2--2-5\7-|-22-5----2-7-|
A-|-2--2--2-3\5-|-2--2--2-3\5-|-2--2--2-3\5-|-22-3----2-5-|
E-|-0--0--0-----|-0--0--0-----|-0--0--0-----|-00------0---|


-- Chorus --
e-|--------------------|
B-|--------------------|
G-|--------------------|
D-|----5--7--2--2-2--2-|
A-|-3-----5--2--2-2--2-|
E-|----------0--0-0--0-|


-- Verse Two --
    pm...................................................................
e-|-----------------|-----------------|-----------------|-----------------|
B-|-----------------|-----------------|-----------------|-----------------|
G-|-----------------|-----------------|-----------------|-----5-------7---|
D-|---------5-5-5-5-|---------5-5-5-5-|---------5-5-5-5-|---5---5---7---7-|
A-|-2-2-2-2-3-3-3-3-|-2-2-2-2-3-3-3-3-|-2-2-2-2-3-3-3-3-|-3-------5-------|
E-|-0-0-0-0---------|-0-0-0-0---------|-0-0-0-0---------|-----------------|
                                                        | 1st End         |
                                                        |                 |
                                                      e-|-----------------|
                                                      B-|-----------------|
                                                      G-|-5-------7-------|
                                                      D-|-5-------7-------|
                                                      A-|-3-------5-------|
                                                      E-|-----------------|
                                                          2nd End (no pm)


Then play "Verse One" riff twice


-- Chorus --
Note: There is a E power chord played endlessly through a part of the 
      chorus, you'll have to look for it. 


-- Verse 3 --
The Bass plays the verse riff while the guitars give out some feedback.
Then it hits a C power chord then a D power chord and does the "Verse 
Two" riff.


-- Chorus -- 


-- Verse 4 --
The same as verse one, but 4th bar is:
                         D-|-2-2---2-2-|
                         A-|-2-2---2-2-|
                         E-|-0-0---0-0-|



That's the just of the song. This a little hard to
understand, but it's pretty easy to follow if you 
listen to the CD.     
Добавлено: 12.10.2013
Другие материалы по этой песне:
  • Аккорды и текст

Страница создана 12.10.2013
http://primanota.ru/stavesacre/an-eclipsing-chords.htm
Привет, Гость.
Предлагаем пройти революционный курс по гитаре.
Подарок от PrimaNota.Ru, забирай!