PrimaNota.ru - самый крупный в мире бесплатный архив песенных текстов, аккордов, табулатур и нот


Stavesacre - A Reason To Believe - текст песни, таба, видео

Регистрация Запомнить меня
Войти через:  Facebook Google Twitter Vk Yandex Mail.ru

Stavesacre - A Reason To Believe - текст песни, таба, видео

Печатать
Просмотров: 31
A Reason To Believe
by Stavesacre

Most of these parts are played 
quickly and palm-muted, so I will 
leave it up to you to listen to 
the song and get the groove down.

Contact me at: 
joshua1vs89@icloud.com

Intro:

e|-----------2---0---|
B|-----------3---3---|
G|-------2---2---2---|
D|---0---0-----------|
A|---5---0-----------|
D|-------------------|

Chorus:

e|-----------2---0--------|
B|-----------3---3--------|
G|-------2---2---2--------|
D|---0---0----0---0---0---|
A|---5---10---9---3---7---|
D|------------------------|

e|-----------------|
B|-----------------|
G|-----------------|
D|---0---0----0----|
A|---5---12---17---|
D|-----------------|

Verse:

e|---------------|
B|---------------|
G|---------------|
D|---------------|
A|---5---7---3---|
D|---0---0---0---|

e|----------------|
B|----------------|
G|----------------|
D|----------------|
A|---5---7---10---|
D|---0---0---0----|

e|---------------|
B|---------------|
G|---------------|
D|---------------|
A|---5---7---3---|
D|---0---0---0---|

e|-----------------|
B|-----------------|
G|-----------------|
D|-----------------|
A|---5---12---17---|
D|---0---0----0----|

Bridge 1:

e|---------------|
B|---------------|
G|---------------|
D|---8-----------|
A|---8---7---5---|
D|---8---0---0---|

e|-------------------|
B|-------------------|
G|-------------------|
D|---0---9---4---5---|
A|---0---9---4---5---|
D|---0---9---4---5---| 

Bridge 2:

e|---------------|
B|---------------|
G|---------------|
D|---9---7---5---|
A|---9---7---5---|
D|---9---7---5---|

e|-------------------|
B|-------------------|
G|-------------------|
D|---0---9---4---5---|
A|---0---9---4---5---|
D|---0---9---4---5---|

e|-----------|
B|-----------|
G|-----------|
D|---9---7---|
A|---9---7---|
D|---9---7---|

e|-------------------|
B|-------------------|
G|-------------------|
D|---0---9---4---5---|
A|---0---9---4---5---|
D|---0---9---4---5---|

e|---------------|
B|---------------|
G|---------------|
D|---0---0---0---|
A|---2---4---5---|
D|---------------|

Outro:

e|-------------------------------|
B|-------------------------------|
G|-------------------------------|
D|---0---2---4---0---2---5---4---|
A|---0---2---4---0---2---5---4---|
D|---0---2---4---0---2---5---4---|

Chorus:

I'm not looking 
For a reason to believe
I do
I breathe
That's enough for me

Verse 1:

I hear the heart is where the mind
And the body come together
If so, mine's been broken 
Since the day I was born
I'm tired of the divide
And I'm not getting any younger
How does it feel to be whole?

Bridge 1:

To live  
Surrender this empty old resistance
To live

Chorus:

I'm not looking 
For a reason to believe
I do
I breathe
That's enough for me

Verse 2:

I've wasted so much time
Coming up with questions
Asking why
Has never answered much for me
And really who am I
To never feel the weight of burden?
When was I promised simplicity?

Bridge 1:

To live  
Let go of this tired old resistance
To live

Chorus:

I'm not looking 
for a reason to believe
I do
I breathe
That's enough for me

Bridge 2:

They say don't worry 
We all sink slowly
It happens to the best of us
They say don't worry  
We all sink slowly
It happens to the best of us
We all sink slowly

Outro:

I'm not looking 
For a reason to believe
I do
I breathe
Добавлено: 31.12.2015
Другие материалы по этой песне:
  • Аккорды и текст

Страница создана 10.05.2012
http://primanota.ru/stavesacre/a-reason-to-believe-chords.htm
Привет, Гость.
Предлагаем пройти революционный курс по гитаре.
Подарок от PrimaNota.Ru, забирай!