PrimaNota.ru - самый крупный в мире бесплатный архив песенных текстов, аккордов, табулатур и нот


Status Quo - What To Do - текст песни, таба, видео

Регистрация Запомнить меня
Войти через:  Facebook Google Twitter Vk Yandex Mail.ru

Status Quo - What To Do - текст песни, таба, видео

Печатать
Просмотров: 128
Авторы: Francis Rossi, Robert Keith Young

What To Do
Status Quo


Intro (played twice!):

  A                          B               
e|-------------5-------5----|--------------7------------|
b|-----5-7-8-7---7-8-7---7-8|-----7-9-10-9---9-10-9-10--|
g|-5h6----------------------|-7h8-----------------------|
d|--------------------------|---------------------------|
a|--------------------------|---------------------------|
e|--------------------------|---------------------------|

  D                                 A                
e|-------------10-9------------|-----5-7-7p6p5-----------------------| 
b|-10-12-11-10------12-11-10\--|-5h6-----------7p6p5-----------------| 
g|-----------------------------|---------------------7-5-------------|
d|-----------------------------|-------------------------7-5---------| 
a|-----------------------------|-----------------------------7-5-3---| 
e|-----------------------------|-----------------------------------5-| 
								    

  A                E7   	    D                E7      D          

e|0-0-------------|0-0-------------|----------------|----------------| 
b|--------------23|--------------02|3-3-----------23|3-3---023-3---20| 
g|----------------|----------------|----------------|----------------| 
d|----------------|----------------|----------------|----------------| 
a|----------------|----------------|----------------|----------------| 
e|----------------|----------------|----------------|----------------| 
(I)found her  in a  no where   and I lost her and I found her and I lost her in a	
	
 A             	   E7   	    D                E7      D          

e|------0-0-------|0---------------|----------------|----------------| 
b|-----2--------23|--------------02|3-3-----------23|3-3---023-3---20| 
g|2---------------|----------------|----------------|----------------| 
d|----------------|----------------|----------------|----------------| 
a|----------------|----------------|----------------|----------------| 
e|----------------|----------------|----------------|----------------| 
  way. She told me of her life of a great life of a fun life but a dumb life in a 
       She told me of a life  of a strange one pre arranged one that I dreamt of any

  A                E7   	    D                E7      D          

e|------0-0-------|0-0-------------|----------------|----------------| 
b|-----2--------23|--------------02|3-3-----------23|3-3---023-3---20| 
g|2---------------|----------------|----------------|----------------| 
d|----------------|----------------|----------------|----------------| 
a|----------------|----------------|----------------|----------------| 
e|----------------|----------------|----------------|----------------| 
  way. We took off  to a somewhere it was fun there all a  long there but we left there in a 	

  A       E         D   	    A       E        D                

e|----000-0---0---|2---------------|--00-0--0---3---|2---------------| 
b|----------------|----3-3---------|----------------|----3-3---------| 
g|2---------------|----------------|----------------|----------------| 
d|----------------|----------------|----------------|----------------| 
a|----------------|----------------|----------------|----------------| 
e|----------------|----------------|----------------|----------------| 
  way. I didn't know just what to do I didn't know just what to do	


  A       E    	   D   			                

e|--00-0--0---3---|2---------------| 
b|----------------|----3-3---1-----| 
g|----------------|-------------2--| 
d|----------------|----------------|
a|----------------|----------------| 
e|----------------|----------------| 
  I didn't know just what to do	to do			  

Like intro (also played twice!):	  
  A                          B               
e|-------------5-------5----|--------------7------------|
b|-----5-7-8-7---7-8-7---7-8|-----7-9-10-9---9-10-9-10--|
g|-5h6----------------------|-7h8-----------------------|
d|--------------------------|---------------------------|
a|--------------------------|---------------------------|
e|--------------------------|---------------------------|

  D                                 A                
e|-------------10-9-------------|-----5-7-7p6p5-----------------------| 
b|-10-12-11-10-------12-11-10\--|-5h6-----------7p6p5-----------------| 
g|------------------------------|---------------------7-5-------------|
d|------------------------------|-------------------------7-5---------| 
a|------------------------------|-----------------------------7-5-3---| 
e|------------------------------|-----------------------------------5-|

Guitar solo: / B / B / B / B / E / E / E / E / B / B / B / B / E / E / 

 											 
  A                E7 		    D                E7

e|0-0-------------|0-0-------------|----------------|----------------| 
b|--------------02|--------------02|3-3-----------02|3-3----3--3---20| 
g|----------------|----------------|----------------|----------------| 
d|----------------|----------------|----------------|----------------| 
a|----------------|----------------|----------------|----------------| 
e|----------------|----------------|----------------|----------------| 
(We) started  talkin  easy   ‘bout the sleazy and the easy things that people 
	
	
  A                E7   	    D                E7      D          

e|------0-0-------|0---------------|----------------|----------------| 
b|-----2--------23|--------------02|3-3-----------02|3-3---023-3---20| 
g|2---------------|----------------|----------------|----------------| 
d|----------------|----------------|----------------|----------------| 
a|----------------|----------------|----------------|----------------| 
e|----------------|----------------|----------------|----------------| 
 do  I told her of a  life  of a strange one  prea-  ranged one that I dreamt of any 

  A       E        D   		    A    E           D                

e|----000-0---0---|2---------------|--00-0--0---3---|2---------------| 
b|----------------|----3-3---------|----------------|----3-3---------| 
g|2---------------|----------------|----------------|----------------| 
d|----------------|----------------|----------------|----------------| 
a|----------------|----------------|----------------|----------------| 
e|----------------|----------------|----------------|----------------| 
   way. I didn't know just what to do I didn't know just what to do	


  A       E        D   			                

e|--00-0--0---3---|2---------------| 
b|----------------|----3-3---1-----| 
g|----------------|-------------2--| 
d|----------------|----------------|
a|----------------|----------------| 
e|----------------|----------------| 
   I didn't know just what to do to do			  
Добавлено: 21.02.2012
Другие материалы по этой песне:
  • Аккорды и текст

Страница создана 21.02.2012
http://primanota.ru/status-quo/what-to-do-chords.htm
Привет, Гость.
Предлагаем пройти революционный курс по гитаре.
Подарок от PrimaNota.Ru, забирай!