PrimaNota.ru - самый крупный в мире бесплатный архив песенных текстов, аккордов, табулатур и нот


Status Quo - Bevalista Man - таба

Регистрация Запомнить меня
Войти через:  Facebook Google Twitter Vk Yandex Mail.ru

Status Quo - Bevalista Man - таба

Печатать
Просмотров: 103
Уроки эстрадного вокала в Санкт-Петербурге
Repeat for entire intro:     

   F#
e|-----------------|			      
B|-----------------|			      	
G|-----------------|    also used in 'inst'	
D|-----------------|			      	
A|-4-4-6-4-4-4-6-4-|			      	
E|-2-2-2-2-2-2-2-2-|			      	

Lead Guitar:

e|---------------5---------------------------5----------------|
B|-5h6h7-7-7r5------7-7-7-7r5------7-7-7r5--------------------|	
G|-------------6--------------6------------6-----4-4-4-4r2----|
D|------------------------------7--------------------------4-4|
A|------------------------------------------------------------|
E|------------------------------------------------------------|

e|-----------5---------------------------7b9-5--------------|
B|-7-7-7r5------7-7-7-7r5------5h6h7-7-7--------------------|	
G|---------6--------------6--------------------4-4-4-4r2----|
D|--------------------------7----------------------------4-4|
A|----------------------------------------------------------|
E|----------------------------------------------------------|




	      F# 	
I've got a room with a view from the mountain to the sea
	        F#
It's growing cold outside but I'm as warm as I can be
	   B
I got a painting by DaVinci on my door
   F#
A tiger hide down right on the floor
       C#		         D  A  E     F#	  
I'm a Belavista man, I need a Bel-a-vista woman

Guitar intro:

        F#
Don't need no pills, no aphrodisiac
	       F#	
I'm looking for some brand new scratch marks on my back
	     B
So if you wear a little dress that starts late and ends early
F#
I can be the doctor you can be the nursey 
       C#                      D   A  E B  F#
I'm a Belavista man, I need a Bel-a-vista woman
   D  A  E  B  F#
A Bel-a-vista woman

D-A-E
	    B
I'm gonna advertise my vacancy
	          B
Cause I need a partner on the board of my company
      B
When word gets out, there's gonna be a rush
    C#7+9
So get in early, Get in touch

Harmonica solo:
| F# | F# | F# | D-A-E-B | <- to be repeated

	    B
I'm gonna advertise my vacancy
	          B
Cause I need a partner on the board of my company
      B
When word gets out, there's gonna be a rush
   C#7+9
So get in early a hurry, Get in touch

            F# 			     B	 	   F#
I've got a room with a view from the mountain to the sea
           F#		           B           F#
And all I need right now is a special company
            C#                      D  A  E  B  F#
Yeah I'm a Belavista man, I need a Bel-a-vista Woman
             C#                      D  A  E  B  F#
Ooooo I'm a Belavista man, I need a Bel-a-vista Woman
           C#                       B           F#
Yeah I'm a Belavista man, I need a Bel-a-vista Woman


 F#
e|-----2-----------2------------------|			      
B|-----2-4-5-4-----2-4-5-4------------|			      	
G|-2h3---4-6-4-2h3---4-6-4-..etc..----|  
D|------------------------------------|			      	
A|------------------------------------|			      	
E|------------------------------------|	

D-A-E-B		      	

Lead Guitar:

 D  A  E  B  F#
Bel-a-vista Woman
 D  A  E  B  F#
Bel-a-vista Woman
 D  A  E  B  F#
Bela-v-ista-Woman
Добавлено: 14.09.2013
Другие материалы по этой песне:
  • Аккорды и текст

Страница создана 14.09.2013
http://primanota.ru/status-quo/bevalista-man-chords.htm
Привет, Гость.
Предлагаем пройти революционный курс по гитаре.
Подарок от PrimaNota.Ru, забирай!