PrimaNota.ru - самый крупный в мире бесплатный архив песенных текстов, аккордов, табулатур и нот


Status Quo - Ain't Complaining - текст песни, таба, видео

Регистрация Запомнить меня
Войти через:  Facebook Google Twitter Vk Yandex Mail.ru

Status Quo - Ain't Complaining - текст песни, таба, видео

Печатать
Просмотров: 263
Уроки эстрадного вокала в Санкт-Петербурге
Ain't Complaining 
Status Quo
 
main riff:
 E|-----------------------------------------------------------------------|
 B|-----------------------------------------------------------------------|
 G|--------0--2--------0--2--------0--2--(4)--2---0-----------------------|
 D|--0--2--------0--2--------0--2--------------------2--(4)--2---0--------|
 A|-----------------------------------------------------------------------|
 E|-----------------------------------------------------------------5--3--|
      H      BU   H      BU   H       BU     BDPo   BU      BD Po  Ch



 E|-----------------------------------------------------------------------|
 B|--------------3---------------3----------------------------------------|
 G|--------0--2-----------0--2--(4)--2--(4)---2----------0--2--(4)--2--0--|
 D|--0--2-----------0--2-------------------------0---2--------------------|
 A|-----------------------------------------------------------------------|
 E|-----------------------------------------------------------------------|
      H      BU      H       BU       BU    BD     H        BU     BD     



 E|------------------------------------------------------|
 B|------------------------------------------------------|
 G|-----------------2--(4)--2--0-------------------------|
 D|--2--(4)--2--0------------------2--(4)--2--0----------|
 A|------------------------------------------------------|
 E|-----------------------------------------------5---3--|
     BU    Bd        BU   BD        BU   BD      Ch
Добавлено: 19.11.2013
Другие материалы по этой песне:
  • Аккорды и текст

Страница создана 09.04.2012
http://primanota.ru/status-quo/aint-complaining-chords.htm
Привет, Гость.
Предлагаем пройти революционный курс по гитаре.
Подарок от PrimaNota.Ru, забирай!