PrimaNota.ru - самый крупный в мире бесплатный архив песенных текстов, аккордов, табулатур и нот


Static-x - The Enemy - текст песни, таба, бас-таба, видео

Регистрация Запомнить меня
Войти через:  Facebook Google Twitter Vk Yandex Mail.ru

Static-x - The Enemy - текст песни, таба, бас-таба, видео

Печатать
Просмотров: 137
-----------------------------------------------------------------------------
                             THE ENEMY - Static-X
-----------------------------------------------------------------------------
Tabbed by: AEnima18
Email: antetches@hotmail.co.uk

Tuning: Drop A#: A#-F-A#-D#-G-C

Intro:

C |--------------------------|-----------------------------|
G |--------------------------|-----------------------------|
D#|--------------------------|-----------------------------|
A#|--x--x--x-x--x--x--x--x---|--x--x--x-x--x--x--x--x--x-x-|
F |--x--x--x-x--x--x--x--x---|--x--x--x-x--x--x--x--x--x-x-|
A#|--x--x--x-x--x--x--x--x---|--x--x--x-x--x--x--x--x--x-x-|

Verse Riff:
    I'll shut you up, I'll shut you up
C |-----------------------------------|
G |-----------------------------------|
D#|-----------------------------------|
A#|--2-2--2-3--2--2-3--2--2-3--2--2-3-|
F |--2-2--2-3--2--2-3--2--2-3--2--2-3-|
A#|--2-2--2-3--2--2-3--2--2-3--2--2-3-|

Chorus:

C |------------|-------------|------------|-------------|
G |------------|-------------|------------|-------------|
D#|------------|-------------|------------|-------------|
A#|--0---0--0--|--3---3--3---|--0---0--0--|--3---3--3---|
F |--0---0--0--|--3---3--3---|--0---0--0--|--3---3--3---|
A#|--0---0--0--|--3---3--3---|--0---0--0--|--3---3--3---|


Guitar 1.
C |--------------------------|--------------------------|
G |--------------------------|--------------------------|
D#|--------------------------|--------------------------|
A#|--x--x--x-x--x--x--x--x---|--x--x--x-x--x--x--x--x---|
F |--x--x--x-x--x--x--x--x---|--x--x--x-x--x--x--x--x---|
A#|--x--x--x-x--x--x--x--x---|--x--x--x-x--x--x--x--x---|
  |
  |Guitar 2. Harmonics
C |--------------------------|--------------------------|
G |------------------11------|-----------------11-------|
D#|--7-----------------------|---7----------------------|
A#|--------------------------|--------------------------|
F |--------------------------|--------------------------|
A#|--------------------------|--------------------------|


C |-----------------------------------|
G |-----------------------------------|
D#|-----------------------------------|
A#|--2-2--2-3--2--2-3--2--2-3--2--2-3-|
F |--2-2--2-3--2--2-3--2--2-3--2--2-3-|
A#|--2-2--2-3--2--2-3--2--2-3--2--2-3-|


Chorus:

C |------------|-------------|------------|-------------|
G |------------|-------------|------------|-------------|
D#|------------|-------------|------------|-------------|
A#|--0---0--0--|--3---3--3---|--0---0--0--|--3---3--3---|
F |--0---0--0--|--3---3--3---|--0---0--0--|--3---3--3---|
A#|--0---0--0--|--3---3--3---|--0---0--0--|--3---3--3---|

Chorus:

C|-------------|-------------|------------|-------------|
G|-------------|-------------|------------|-------------|
D|-------------|-------------|------------|-------------|
A#|--0---0--0--|--3---3--3---|--0---0--0--|--3---3--3---|
F |--0---0--0--|--3---3--3---|--0---0--0--|--3---3--3---|
A#|--0---0--0--|--3---3--3---|--0---0--0--|--3---3--3---|
  |
  |
C |-----------------------------------------------------|
G |-----------------------------------------------------|
D#|--888888888--111111111111---8888888888--11111111111--|
A#|--xxxxxxxxx--xxxxxxxxxxxx---xxxxxxxxxx--xxxxxxxxxxx--|
F |--666666666--999999999999---6666666666--99999999999--|
A#|-----------------------------------------------------|


Bridge:
    You make me, you make me hate you   You make me, you make me hate you
C |----------------------------------|--------------------------------------|
G |----------------------------------|--------------------------------------|
D#|----------------------------------|--------------------------------------|
A#|--0-------------------------------|--0-----------------------------------|
F |--0-------------------------------|--0-----------------------------------|
A#|--0-------------------------------|--0-----------------------------------|      
     X                                  X


   YOU MAKE ME HATE YOU
C |---------------------|
G |---------------------|
D#|---------------------|
A#|---------------------| (Band silent)
F |---------------------|
A#|---------------------|


    YOU MAKE ME, YOU MAKE ME HATE YOU
C |-----------------------------------|
G |-----------------------------------|
D#|-----------------------------------|
A#|--2-2--2-3--2--2-3--2--2-3--2--2-3-|
F |--2-2--2-3--2--2-3--2--2-3--2--2-3-|
A#|--2-2--2-3--2--2-3--2--2-3--2--2-3-|


Fill after bridge/Breakdown: pick-slide, then palm muted.
C |-------------------------|
G |-------------------------|
D#|-------------------------|
A#|-------------------------|
F |-------------------0-0-0-|
A#|--x/x/x/x/x/x/x/x/-0-0-0-|
                      x x x

Chorus:

C |------------|-------------|------------|-------------|
G |------------|-------------|------------|-------------|
D#|------------|-------------|------------|-------------|
A#|--0---0--0--|--3---3--3---|--0---0--0--|--3---3--3---|
F |--0---0--0--|--3---3--3---|--0---0--0--|--3---3--3---|
A#|--0---0--0--|--3---3--3---|--0---0--0--|--3---3--3---|


C|-------------|-------------|------------|-------------|
G|-------------|-------------|------------|-------------|
D|-------------|-------------|------------|-------------|
A#|--0---0--0--|--3---3--3---|--0---0--0--|--3---3--3---|
F |--0---0--0--|--3---3--3---|--0---0--0--|--3---3--3---|
A#|--0---0--0--|--3---3--3---|--0---0--0--|--3---3--3---|
  |
  |
C |-----------------------------------------------------|
G |-----------------------------------------------------|
D#|--888888888--111111111111---8888888888--11111111111--|
A#|--xxxxxxxxx--xxxxxxxxxxxx---xxxxxxxxxx--xxxxxxxxxxx--|
F |--666666666--999999999999---6666666666--99999999999--|
A#|-----------------------------------------------------|


Guitar 1.
C |--------------------------|--------------------------|
G |--------------------------|--------------------------|
D#|--------------------------|--------------------------|
A#|--x--x--x-x--x--x--x--x---|--x--x--x-x--x--x--x--x---|
F |--x--x--x-x--x--x--x--x---|--x--x--x-x--x--x--x--x---|
A#|--x--x--x-x--x--x--x--x---|--x--x--x-x--x--x--x--x---|
  |
  |Guitar 2. Harmonics
C |--------------------------|--------------------------|
G |-----------------11-------|-----------------11-------|
D#|--7-----------------------|--7-----------------------|
A#|--------------------------|--------------------------|
F |--------------------------|--------------------------|
A#|--------------------------|--------------------------|


| /  slide up
| \  slide down
| h  hammer-on
| p  pull-off
| ~  vibrato
| +  harmonic
| x  Mute note
=============================================================================
Добавлено: 29.05.2012
Другие материалы по этой песне:

Страница создана 25.03.2012
http://primanota.ru/static-x/the-enemy-chords.htm
Привет, Гость.
Предлагаем пройти революционный курс по гитаре.
Подарок от PrimaNota.Ru, забирай!